  0
SECTION
  2
HEADER
  9
$ACADVER
  1
AC1015
  9
$ACADMAINTVER
 70
     6
  9
$DWGCODEPAGE
  3
ANSI_1254
  9
$INSBASE
 10
0.0
 20
0.0
 30
0.0
  9
$EXTMIN
 10
0.0
 20
0.0
 30
0.0
  9
$EXTMAX
 10
279.4
 20
215.9
 30
0.0
  9
$LIMMIN
 10
0.0
 20
0.0
  9
$LIMMAX
 10
279.4
 20
215.9
  9
$ORTHOMODE
 70
     0
  9
$REGENMODE
 70
     1
  9
$FILLMODE
 70
     1
  9
$QTEXTMODE
 70
     0
  9
$MIRRTEXT
 70
     1
  9
$LTSCALE
 40
1.0
  9
$ATTMODE
 70
     1
  9
$TEXTSIZE
 40
3.5
  9
$TRACEWID
 40
1.0
  9
$TEXTSTYLE
  7
Standard
  9
$CLAYER
  8
0
  9
$CELTYPE
  6
ByLayer
  9
$CECOLOR
 62
   256
  9
$CELTSCALE
 40
1.0
  9
$DISPSILH
 70
     0
  9
$DIMSCALE
 40
1.0
  9
$DIMASZ
 40
3.5
  9
$DIMEXO
 40
1.0
  9
$DIMDLI
 40
3.75
  9
$DIMRND
 40
0.0
  9
$DIMDLE
 40
0.0
  9
$DIMEXE
 40
1.0
  9
$DIMTP
 40
0.0
  9
$DIMTM
 40
0.0
  9
$DIMTXT
 40
3.5
  9
$DIMCEN
 40
2.5
  9
$DIMTSZ
 40
0.0
  9
$DIMTOL
 70
     0
  9
$DIMLIM
 70
     0
  9
$DIMTIH
 70
     1
  9
$DIMTOH
 70
     1
  9
$DIMSE1
 70
     0
  9
$DIMSE2
 70
     0
  9
$DIMTAD
 70
     1
  9
$DIMZIN
 70
     0
  9
$DIMBLK
  1

  9
$DIMASO
 70
     1
  9
$DIMSHO
 70
     1
  9
$DIMPOST
  1

  9
$DIMAPOST
  1

  9
$DIMALT
 70
     0
  9
$DIMALTD
 70
     3
  9
$DIMALTF
 40
0.0393700787
  9
$DIMLFAC
 40
1.0
  9
$DIMTOFL
 70
     1
  9
$DIMTVP
 40
0.0
  9
$DIMTIX
 70
     0
  9
$DIMSOXD
 70
     0
  9
$DIMSAH
 70
     0
  9
$DIMBLK1
  1

  9
$DIMBLK2
  1

  9
$DIMSTYLE
  2
ISO-25
  9
$DIMCLRD
 70
     0
  9
$DIMCLRE
 70
     0
  9
$DIMCLRT
 70
     0
  9
$DIMTFAC
 40
1.0
  9
$DIMGAP
 40
1.524
  9
$DIMJUST
 70
     0
  9
$DIMSD1
 70
     0
  9
$DIMSD2
 70
     0
  9
$DIMTOLJ
 70
     0
  9
$DIMTZIN
 70
     0
  9
$DIMALTZ
 70
     0
  9
$DIMALTTZ
 70
     0
  9
$DIMUPT
 70
     0
  9
$DIMDEC
 70
     2
  9
$DIMTDEC
 70
     2
  9
$DIMALTU
 70
     2
  9
$DIMALTTD
 70
     3
  9
$DIMTXSTY
  7
Standard
  9
$DIMAUNIT
 70
     0
  9
$DIMADEC
 70
     2
  9
$DIMALTRND
 40
0.0
  9
$DIMAZIN
 70
     0
  9
$DIMDSEP
 70
    44
  9
$DIMATFIT
 70
     3
  9
$DIMFRAC
 70
     0
  9
$DIMLDRBLK
  1

  9
$DIMLUNIT
 70
     2
  9
$DIMLWD
 70
    -2
  9
$DIMLWE
 70
    -2
  9
$DIMTMOVE
 70
     0
  9
$LUNITS
 70
     2
  9
$LUPREC
 70
     2
  9
$SKETCHINC
 40
1.0
  9
$FILLETRAD
 40
10.0
  9
$AUNITS
 70
     0
  9
$AUPREC
 70
     2
  9
$MENU
  1
.
  9
$ELEVATION
 40
0.0
  9
$PELEVATION
 40
0.0
  9
$THICKNESS
 40
0.0
  9
$LIMCHECK
 70
     0
  9
$CHAMFERA
 40
0.0
  9
$CHAMFERB
 40
0.0
  9
$CHAMFERC
 40
0.0
  9
$CHAMFERD
 40
0.0
  9
$SKPOLY
 70
     0
  9
$TDCREATE
 40
2460390.35510162
  9
$TDUCREATE
 40
2460390.23010162
  9
$TDUPDATE
 40
2460390.355101806
  9
$TDUUPDATE
 40
2460390.230101806
  9
$TDINDWG
 40
0.0000000116
  9
$TDUSRTIMER
 40
0.0000000116
  9
$USRTIMER
 70
     1
  9
$ANGBASE
 50
0.0
  9
$ANGDIR
 70
     0
  9
$PDMODE
 70
     0
  9
$PDSIZE
 40
-1.0
  9
$PLINEWID
 40
0.0
  9
$SPLFRAME
 70
     0
  9
$SPLINETYPE
 70
     6
  9
$SPLINESEGS
 70
     8
  9
$HANDSEED
  5
10F
  9
$SURFTAB1
 70
     6
  9
$SURFTAB2
 70
     6
  9
$SURFTYPE
 70
     6
  9
$SURFU
 70
     6
  9
$SURFV
 70
     6
  9
$UCSBASE
  2

  9
$UCSNAME
  2

  9
$UCSORG
 10
0.0
 20
0.0
 30
0.0
  9
$UCSXDIR
 10
1.0
 20
0.0
 30
0.0
  9
$UCSYDIR
 10
0.0
 20
1.0
 30
0.0
  9
$UCSORTHOREF
  2

  9
$UCSORTHOVIEW
 70
     0
  9
$UCSORGTOP
 10
0.0
 20
0.0
 30
0.0
  9
$UCSORGBOTTOM
 10
0.0
 20
0.0
 30
0.0
  9
$UCSORGLEFT
 10
0.0
 20
0.0
 30
0.0
  9
$UCSORGRIGHT
 10
0.0
 20
0.0
 30
0.0
  9
$UCSORGFRONT
 10
0.0
 20
0.0
 30
0.0
  9
$UCSORGBACK
 10
0.0
 20
0.0
 30
0.0
  9
$PUCSBASE
  2

  9
$PUCSNAME
  2

  9
$PUCSORG
 10
0.0
 20
0.0
 30
0.0
  9
$PUCSXDIR
 10
1.0
 20
0.0
 30
0.0
  9
$PUCSYDIR
 10
0.0
 20
1.0
 30
0.0
  9
$PUCSORTHOREF
  2

  9
$PUCSORTHOVIEW
 70
     0
  9
$PUCSORGTOP
 10
0.0
 20
0.0
 30
0.0
  9
$PUCSORGBOTTOM
 10
0.0
 20
0.0
 30
0.0
  9
$PUCSORGLEFT
 10
0.0
 20
0.0
 30
0.0
  9
$PUCSORGRIGHT
 10
0.0
 20
0.0
 30
0.0
  9
$PUCSORGFRONT
 10
0.0
 20
0.0
 30
0.0
  9
$PUCSORGBACK
 10
0.0
 20
0.0
 30
0.0
  9
$USERI1
 70
     0
  9
$USERI2
 70
     0
  9
$USERI3
 70
     0
  9
$USERI4
 70
     0
  9
$USERI5
 70
     0
  9
$USERR1
 40
0.0
  9
$USERR2
 40
0.0
  9
$USERR3
 40
0.0
  9
$USERR4
 40
0.0
  9
$USERR5
 40
0.0
  9
$WORLDVIEW
 70
     1
  9
$SHADEDGE
 70
     3
  9
$SHADEDIF
 70
    70
  9
$TILEMODE
 70
     1
  9
$MAXACTVP
 70
    64
  9
$PINSBASE
 10
0.0
 20
0.0
 30
0.0
  9
$PLIMCHECK
 70
     0
  9
$PEXTMIN
 10
1.0000000000E+20
 20
1.0000000000E+20
 30
1.0000000000E+20
  9
$PEXTMAX
 10
-1.0000000000E+20
 20
-1.0000000000E+20
 30
-1.0000000000E+20
  9
$PLIMMIN
 10
0.0
 20
0.0
  9
$PLIMMAX
 10
420.0
 20
297.0
  9
$UNITMODE
 70
     0
  9
$VISRETAIN
 70
     1
  9
$PLINEGEN
 70
     0
  9
$PSLTSCALE
 70
     1
  9
$TREEDEPTH
 70
  3020
  9
$CMLSTYLE
  2
Standard
  9
$CMLJUST
 70
     0
  9
$CMLSCALE
 40
20.0
  9
$PROXYGRAPHICS
 70
     1
  9
$MEASUREMENT
 70
     1
  9
$CELWEIGHT
370
    -1
  9
$ENDCAPS
280
     0
  9
$JOINSTYLE
280
     0
  9
$LWDISPLAY
290
     1
  9
$INSUNITS
 70
     4
  9
$HYPERLINKBASE
  1

  9
$STYLESHEET
  1

  9
$XEDIT
290
     1
  9
$CEPSNTYPE
380
     0
  9
$PSTYLEMODE
290
     1
  9
$FINGERPRINTGUID
  2
{80464945-f1ac-49c4-8408-5485a10a9138}
  9
$VERSIONGUID
  2
{FAEB1C32-E019-11D5-929B-00C0DF256EC4}
  9
$EXTNAMES
290
     1
  9
$PSVPSCALE
 40
0.0
  9
$OLESTARTUP
290
     0
  0
ENDSEC
  0
SECTION
  2
CLASSES
  0
CLASS
  1
ACDBDICTIONARYWDFLT
  2
AcDbDictionaryWithDefault
  3
ObjectDBX Classes
 90
        0
280
     0
281
     0
  0
CLASS
  1
VISUALSTYLE
  2
AcDbVisualStyle
  3
ObjectDBX Classes
 90
     4095
280
     0
281
     0
  0
CLASS
  1
MATERIAL
  2
AcDbMaterial
  3
ObjectDBX Classes
 90
     1153
280
     0
281
     0
  0
CLASS
  1
SCALE
  2
AcDbScale
  3
ObjectDBX Classes
 90
     1153
280
     0
281
     0
  0
CLASS
  1
TABLESTYLE
  2
AcDbTableStyle
  3
ObjectDBX Classes
 90
     4095
280
     0
281
     0
  0
CLASS
  1
MLEADERSTYLE
  2
AcDbMLeaderStyle
  3
ACDB_MLEADERSTYLE_CLASS
 90
     4095
280
     0
281
     0
  0
CLASS
  1
SUN
  2
AcDbSun
  3
SCENEOE
 90
     1153
280
     0
281
     0
  0
CLASS
  1
ACDBPLACEHOLDER
  2
AcDbPlaceHolder
  3
ObjectDBX Classes
 90
        0
280
     0
281
     0
  0
CLASS
  1
LAYOUT
  2
AcDbLayout
  3
ObjectDBX Classes
 90
        0
280
     0
281
     0
  0
ENDSEC
  0
SECTION
  2
TABLES
  0
TABLE
  2
VPORT
  5
8
330
0
100
AcDbSymbolTable
 70
     1
  0
VPORT
  5
29
330
8
100
AcDbSymbolTableRecord
100
AcDbViewportTableRecord
  2
*Active
 70
     0
 10
0.0
 20
0.0
 11
1.0
 21
1.0
 12
139.7
 22
107.95
 13
0.0
 23
0.0
 14
10.0
 24
10.0
 15
10.0
 25
10.0
 16
0.0
 26
0.0
 36
1.0
 17
0.0
 27
0.0
 37
0.0
 40
215.9
 41
1.2941176471
 42
50.0
 43
0.0
 44
0.0
 50
0.0
 51
0.0
 71
     0
 72
  2000
 73
     1
 74
     3
 75
     0
 76
     0
 77
     0
 78
     0
281
     0
 65
     1
110
0.0
120
0.0
130
0.0
111
1.0
121
0.0
131
0.0
112
0.0
122
1.0
132
0.0
 79
     0
146
0.0
  0
ENDTAB
  0
TABLE
  2
LTYPE
  5
5
330
0
100
AcDbSymbolTable
 70
     6
  0
LTYPE
  5
14
330
5
100
AcDbSymbolTableRecord
100
AcDbLinetypeTableRecord
  2
ByBlock
 70
     0
  3

 72
    65
 73
     0
 40
0.0
  0
LTYPE
  5
15
330
5
100
AcDbSymbolTableRecord
100
AcDbLinetypeTableRecord
  2
ByLayer
 70
     0
  3

 72
    65
 73
     0
 40
0.0
  0
LTYPE
  5
16
330
5
100
AcDbSymbolTableRecord
100
AcDbLinetypeTableRecord
  2
Continuous
 70
     0
  3
Solid line
 72
    65
 73
     0
 40
0.0
  0
LTYPE
  5
6E
330
5
100
AcDbSymbolTableRecord
100
AcDbLinetypeTableRecord
  2
HIDDEN
 70
     0
  3
Hidden __ __ __ __ __ __ __ __ __ __ __ __ __ __
 72
    65
 73
     2
 40
1.905
 49
1.27
 74
     0
 49
-0.635
 74
     0
  0
LTYPE
  5
6F
330
5
100
AcDbSymbolTableRecord
100
AcDbLinetypeTableRecord
  2
PHANTOM
 70
     0
  3
Phantom ______  __  __  ______  __  __  ______
 72
    65
 73
     6
 40
12.7
 49
6.35
 74
     0
 49
-1.27
 74
     0
 49
1.27
 74
     0
 49
-1.27
 74
     0
 49
1.27
 74
     0
 49
-1.27
 74
     0
  0
LTYPE
  5
70
330
5
100
AcDbSymbolTableRecord
100
AcDbLinetypeTableRecord
  2
CENTER
 70
     0
  3
Center ____ _ ____ _ ____ _ ____ _ ____ _ ____
 72
    65
 73
     4
 40
10.16
 49
6.35
 74
     0
 49
-1.27
 74
     0
 49
1.27
 74
     0
 49
-1.27
 74
     0
  0
LTYPE
  5
71
330
5
100
AcDbSymbolTableRecord
100
AcDbLinetypeTableRecord
  2
CENTERX2
 70
     0
  3
Center (2x) ________  __  ________  __  _____
 72
    65
 73
     4
 40
20.32
 49
12.7
 74
     0
 49
-2.54
 74
     0
 49
2.54
 74
     0
 49
-2.54
 74
     0
  0
LTYPE
  5
72
330
5
100
AcDbSymbolTableRecord
100
AcDbLinetypeTableRecord
  2
DOT2
 70
     0
  3
Dot (.5x) ........................................
 72
    65
 73
     2
 40
0.635
 49
0.0
 74
     0
 49
-0.635
 74
     0
  0
ENDTAB
  0
TABLE
  2
LAYER
  5
2
330
0
100
AcDbSymbolTable
 70
    17
  0
LAYER
  5
10
330
2
100
AcDbSymbolTableRecord
100
AcDbLayerTableRecord
  2
0
 70
     0
 62
     7
  6
Continuous
370
    -3
390
F
  0
LAYER
  5
73
330
2
100
AcDbSymbolTableRecord
100
AcDbLayerTableRecord
  2
FORMAT
 70
     0
 62
     7
  6
Continuous
370
    -3
390
F
  0
LAYER
  5
74
330
2
100
AcDbSymbolTableRecord
100
AcDbLayerTableRecord
  2
YARDIMCI_GEOMETRI
 70
     0
 62
    -6
  6
Continuous
290
     0
370
    -3
390
F
  0
LAYER
  5
75
330
2
100
AcDbSymbolTableRecord
100
AcDbLayerTableRecord
  2
SAYFA_CERCEVESI
 70
     0
 62
     7
  6
Continuous
370
    25
390
F
  0
LAYER
  5
76
330
2
100
AcDbSymbolTableRecord
100
AcDbLayerTableRecord
  2
ANTET
 70
     0
 62
     7
  6
Continuous
370
    -3
390
F
  0
LAYER
  5
77
330
2
100
AcDbSymbolTableRecord
100
AcDbLayerTableRecord
  2
OLCU
 70
     0
 62
   150
  6
Continuous
370
    -3
390
F
  0
LAYER
  5
78
330
2
100
AcDbSymbolTableRecord
100
AcDbLayerTableRecord
  2
METIN
 70
     0
 62
    96
  6
Continuous
370
    -3
390
F
  0
LAYER
  5
79
330
2
100
AcDbSymbolTableRecord
100
AcDbLayerTableRecord
  2
BALON
 70
     0
 62
     5
  6
Continuous
370
    -3
390
F
  0
LAYER
  5
7A
330
2
100
AcDbSymbolTableRecord
100
AcDbLayerTableRecord
  2
VURGU
 70
     0
 62
     7
  6
Continuous
370
    -3
390
F
  0
LAYER
  5
7B
330
2
100
AcDbSymbolTableRecord
100
AcDbLayerTableRecord
  2
SILIK
 70
     0
 62
     7
  6
Continuous
370
    -3
390
F
  0
LAYER
  5
7C
330
2
100
AcDbSymbolTableRecord
100
AcDbLayerTableRecord
  2
MODEL
 70
     0
 62
     7
  6
Continuous
370
    -3
390
F
  0
LAYER
  5
7D
330
2
100
AcDbSymbolTableRecord
100
AcDbLayerTableRecord
  2
DETAYLANDıRMA
 70
     0
 62
   190
  6
Continuous
370
    -3
390
F
  0
LAYER
  5
7E
330
2
100
AcDbSymbolTableRecord
100
AcDbLayerTableRecord
  2
TOLERANS
 70
     0
 62
   230
  6
Continuous
370
    -3
390
F
  0
LAYER
  5
7F
330
2
100
AcDbSymbolTableRecord
100
AcDbLayerTableRecord
  2
MERKEZ_CIZGILERI
 70
     0
 62
    30
  6
Continuous
370
    -3
390
F
  0
LAYER
  5
80
330
2
100
AcDbSymbolTableRecord
100
AcDbLayerTableRecord
  2
KESIT-DETAY_CIZGILERI
 70
     0
 62
     7
  6
Continuous
370
    -3
390
F
  0
LAYER
  5
81
330
2
100
AcDbSymbolTableRecord
100
AcDbLayerTableRecord
  2
\U+041E\U+0421\U+0415\U+0412\U+042B\U+0415
 70
     0
 62
     7
  6
Continuous
370
    -3
390
F
  0
LAYER
  5
82
330
2
100
AcDbSymbolTableRecord
100
AcDbLayerTableRecord
  2
\U+0412\U+041E\U+0414\U+042F\U+041D\U+042B\U+0415_\U+0417\U+041D\U+0410\U+041A\U+0418
 70
     0
 62
    11
  6
Continuous
370
    -3
390
F
  0
ENDTAB
  0
TABLE
  2
STYLE
  5
3
330
0
100
AcDbSymbolTable
 70
     1
  0
STYLE
  5
11
330
3
100
AcDbSymbolTableRecord
100
AcDbTextStyleTableRecord
  2
Standard
 70
     0
 40
0.0
 41
1.0
 50
0.0
 71
     0
 42
3.5
  3
txt
  4

  0
ENDTAB
  0
TABLE
  2
VIEW
  5
6
330
0
100
AcDbSymbolTable
 70
     0
  0
ENDTAB
  0
TABLE
  2
UCS
  5
7
330
0
100
AcDbSymbolTable
 70
     0
  0
ENDTAB
  0
TABLE
  2
APPID
  5
9
330
0
100
AcDbSymbolTable
 70
     1
  0
APPID
  5
12
330
9
100
AcDbSymbolTableRecord
100
AcDbRegAppTableRecord
  2
ACAD
 70
     0
  0
ENDTAB
  0
TABLE
  2
DIMSTYLE
  5
A
330
0
100
AcDbSymbolTable
 70
     1
100
AcDbDimStyleTable
  0
DIMSTYLE
105
27
330
A
100
AcDbSymbolTableRecord
100
AcDbDimStyleTableRecord
  2
ISO-25
 70
     0
 41
2.5
 42
0.625
 43
3.75
 44
1.25
 73
     0
 74
     0
 77
     1
 78
     8
140
2.5
141
2.5
143
0.0393700787
147
0.625
171
     3
172
     1
178
     0
271
     2
272
     2
274
     3
278
    44
283
     0
284
     8
340
11
  0
ENDTAB
  0
TABLE
  2
BLOCK_RECORD
  5
1
330
0
100
AcDbSymbolTable
 70
     4
  0
BLOCK_RECORD
  5
1F
330
1
100
AcDbSymbolTableRecord
100
AcDbBlockTableRecord
  2
*Model_Space
340
22
  0
BLOCK_RECORD
  5
1B
330
1
100
AcDbSymbolTableRecord
100
AcDbBlockTableRecord
  2
*Paper_Space
340
1E
  0
BLOCK_RECORD
  5
23
330
1
100
AcDbSymbolTableRecord
100
AcDbBlockTableRecord
  2
*Paper_Space0
340
26
  0
BLOCK_RECORD
  5
8C
330
1
100
AcDbSymbolTableRecord
100
AcDbBlockTableRecord
  2
SW_CENTERMARKSYMBOL_0
340
0
102
{BLKREFS
331
97
102
}
  0
BLOCK_RECORD
  5
DE
330
1
100
AcDbSymbolTableRecord
100
AcDbBlockTableRecord
  2
SW_CENTERMARKSYMBOL_1
340
0
102
{BLKREFS
331
E9
102
}
  0
BLOCK_RECORD
  5
EA
330
1
100
AcDbSymbolTableRecord
100
AcDbBlockTableRecord
  2
SW_CENTERMARKSYMBOL_2
340
0
102
{BLKREFS
331
F5
102
}
  0
ENDTAB
  0
ENDSEC
  0
SECTION
  2
BLOCKS
  0
BLOCK
  5
20
330
1F
100
AcDbEntity
  8
0
100
AcDbBlockBegin
  2
*Model_Space
 70
     0
 10
0.0
 20
0.0
 30
0.0
  3
*Model_Space
  1

  0
ENDBLK
  5
21
330
1F
100
AcDbEntity
  8
0
100
AcDbBlockEnd
  0
BLOCK
  5
1C
330
1B
100
AcDbEntity
 67
     1
  8
0
100
AcDbBlockBegin
  2
*Paper_Space
 70
     0
 10
0.0
 20
0.0
 30
0.0
  3
*Paper_Space
  1

  0
ENDBLK
  5
1D
330
1B
100
AcDbEntity
 67
     1
  8
0
100
AcDbBlockEnd
  0
BLOCK
  5
24
330
23
100
AcDbEntity
  8
0
100
AcDbBlockBegin
  2
*Paper_Space0
 70
     0
 10
0.0
 20
0.0
 30
0.0
  3
*Paper_Space0
  1

  0
ENDBLK
  5
25
330
23
100
AcDbEntity
  8
0
100
AcDbBlockEnd
  0
BLOCK
  5
8D
330
8C
100
AcDbEntity
  8
0
100
AcDbBlockBegin
  2
SW_CENTERMARKSYMBOL_0
 70
     0
 10
0.0
 20
0.0
 30
0.0
  3
SW_CENTERMARKSYMBOL_0
  1

  0
LINE
  5
8F
330
8C
100
AcDbEntity
  8
FORMAT
 62
     0
100
AcDbLine
 10
0.0
 20
0.0
 30
0.0
 11
0.0
 21
2.5
 31
0.0
  0
LINE
  5
90
330
8C
100
AcDbEntity
  8
FORMAT
 62
     0
100
AcDbLine
 10
0.0
 20
0.0
 30
0.0
 11
-2.5
 21
0.0
 31
0.0
  0
LINE
  5
91
330
8C
100
AcDbEntity
  8
FORMAT
 62
     0
100
AcDbLine
 10
0.0
 20
0.0
 30
0.0
 11
0.0
 21
-2.5
 31
0.0
  0
LINE
  5
92
330
8C
100
AcDbEntity
  8
FORMAT
 62
     0
100
AcDbLine
 10
0.0
 20
0.0
 30
0.0
 11
2.5
 21
0.0
 31
0.0
  0
LINE
  5
93
330
8C
100
AcDbEntity
  8
FORMAT
 62
     0
100
AcDbLine
 10
0.0
 20
5.0
 30
0.0
 11
0.0
 21
128.25
 31
0.0
  0
LINE
  5
94
330
8C
100
AcDbEntity
  8
FORMAT
 62
     0
100
AcDbLine
 10
-5.0
 20
0.0
 30
0.0
 11
-128.25
 21
0.0
 31
0.0
  0
LINE
  5
95
330
8C
100
AcDbEntity
  8
FORMAT
 62
     0
100
AcDbLine
 10
0.0
 20
-5.0
 30
0.0
 11
0.0
 21
-128.25
 31
0.0
  0
LINE
  5
96
330
8C
100
AcDbEntity
  8
FORMAT
 62
     0
100
AcDbLine
 10
5.0
 20
0.0
 30
0.0
 11
128.25
 21
0.0
 31
0.0
  0
ENDBLK
  5
8E
330
8C
100
AcDbEntity
  8
0
100
AcDbBlockEnd
  0
BLOCK
  5
DF
330
DE
100
AcDbEntity
  8
0
100
AcDbBlockBegin
  2
SW_CENTERMARKSYMBOL_1
 70
     0
 10
0.0
 20
0.0
 30
0.0
  3
SW_CENTERMARKSYMBOL_1
  1

  0
LINE
  5
E1
330
DE
100
AcDbEntity
  8
FORMAT
 62
     0
100
AcDbLine
 10
0.0
 20
0.0
 30
0.0
 11
0.0
 21
2.5
 31
0.0
  0
LINE
  5
E2
330
DE
100
AcDbEntity
  8
FORMAT
 62
     0
100
AcDbLine
 10
0.0
 20
0.0
 30
0.0
 11
-2.5
 21
0.0
 31
0.0
  0
LINE
  5
E3
330
DE
100
AcDbEntity
  8
FORMAT
 62
     0
100
AcDbLine
 10
0.0
 20
0.0
 30
0.0
 11
0.0
 21
-2.5
 31
0.0
  0
LINE
  5
E4
330
DE
100
AcDbEntity
  8
FORMAT
 62
     0
100
AcDbLine
 10
0.0
 20
0.0
 30
0.0
 11
2.5
 21
0.0
 31
0.0
  0
LINE
  5
E5
330
DE
100
AcDbEntity
  8
FORMAT
 62
     0
100
AcDbLine
 10
0.0
 20
5.0
 30
0.0
 11
0.0
 21
9.5
 31
0.0
  0
LINE
  5
E6
330
DE
100
AcDbEntity
  8
FORMAT
 62
     0
100
AcDbLine
 10
-5.0
 20
0.0
 30
0.0
 11
-9.5
 21
0.0
 31
0.0
  0
LINE
  5
E7
330
DE
100
AcDbEntity
  8
FORMAT
 62
     0
100
AcDbLine
 10
0.0
 20
-5.0
 30
0.0
 11
0.0
 21
-9.5
 31
0.0
  0
LINE
  5
E8
330
DE
100
AcDbEntity
  8
FORMAT
 62
     0
100
AcDbLine
 10
5.0
 20
0.0
 30
0.0
 11
9.5
 21
0.0
 31
0.0
  0
ENDBLK
  5
E0
330
DE
100
AcDbEntity
  8
0
100
AcDbBlockEnd
  0
BLOCK
  5
EB
330
EA
100
AcDbEntity
  8
0
100
AcDbBlockBegin
  2
SW_CENTERMARKSYMBOL_2
 70
     0
 10
0.0
 20
0.0
 30
0.0
  3
SW_CENTERMARKSYMBOL_2
  1

  0
LINE
  5
ED
330
EA
100
AcDbEntity
  8
FORMAT
 62
     0
100
AcDbLine
 10
0.0
 20
0.0
 30
0.0
 11
0.0
 21
2.5
 31
0.0
  0
LINE
  5
EE
330
EA
100
AcDbEntity
  8
FORMAT
 62
     0
100
AcDbLine
 10
0.0
 20
0.0
 30
0.0
 11
-2.5
 21
0.0
 31
0.0
  0
LINE
  5
EF
330
EA
100
AcDbEntity
  8
FORMAT
 62
     0
100
AcDbLine
 10
0.0
 20
0.0
 30
0.0
 11
0.0
 21
-2.5
 31
0.0
  0
LINE
  5
F0
330
EA
100
AcDbEntity
  8
FORMAT
 62
     0
100
AcDbLine
 10
0.0
 20
0.0
 30
0.0
 11
2.5
 21
0.0
 31
0.0
  0
LINE
  5
F1
330
EA
100
AcDbEntity
  8
FORMAT
 62
     0
100
AcDbLine
 10
0.0
 20
5.0
 30
0.0
 11
0.0
 21
9.5
 31
0.0
  0
LINE
  5
F2
330
EA
100
AcDbEntity
  8
FORMAT
 62
     0
100
AcDbLine
 10
-5.0
 20
0.0
 30
0.0
 11
-9.5
 21
0.0
 31
0.0
  0
LINE
  5
F3
330
EA
100
AcDbEntity
  8
FORMAT
 62
     0
100
AcDbLine
 10
0.0
 20
-5.0
 30
0.0
 11
0.0
 21
-9.5
 31
0.0
  0
LINE
  5
F4
330
EA
100
AcDbEntity
  8
FORMAT
 62
     0
100
AcDbLine
 10
5.0
 20
0.0
 30
0.0
 11
9.5
 21
0.0
 31
0.0
  0
ENDBLK
  5
EC
330
EA
100
AcDbEntity
  8
0
100
AcDbBlockEnd
  0
ENDSEC
  0
SECTION
  2
ENTITIES
  0
LINE
  5
83
330
1F
100
AcDbEntity
  8
0
  6
Continuous
 62
     7
370
    25
100
AcDbLine
 10
149.9491444162
 20
234.8358918235
 30
0.0
 11
149.9491444162
 21
249.1309342331
 31
0.0
  0
LINE
  5
84
330
1F
100
AcDbEntity
  8
0
  6
Continuous
 62
     7
370
    25
100
AcDbLine
 10
135.9491444162
 20
249.1309342331
 30
0.0
 11
135.9491444162
 21
234.8367217975
 31
0.0
  0
CIRCLE
  5
85
330
1F
100
AcDbEntity
  8
0
  6
Continuous
 62
     7
370
    25
100
AcDbCircle
 10
142.9491444162
 20
91.7809342331
 30
0.0
 40
143.0
  0
ARC
  5
86
330
1F
100
AcDbEntity
  8
0
  6
Continuous
 62
     7
370
    25
100
AcDbCircle
 10
142.9491444162
 20
91.7809342331
 30
0.0
 40
143.9999999999993
100
AcDbArc
 50
92.7863095999
 51
180.0
  0
ARC
  5
87
330
1F
100
AcDbEntity
  8
0
  6
Continuous
 62
     7
370
    25
100
AcDbCircle
 10
142.9491444162
 20
91.7809342331
 30
0.0
 40
143.9999999999993
100
AcDbArc
 50
180.0
 51
87.2136904001
  0
SPLINE
  5
88
330
1F
100
AcDbEntity
  8
0
  6
Continuous
 62
     7
370
    25
100
AcDbSpline
210
0.0
220
0.0
230
1.0
 70
     8
 71
     3
 72
    14
 73
    10
 74
     0
 42
0.00000001
 43
0.00000001
 40
0.0
 40
0.0
 40
0.0
 40
0.0
 40
0.156116465556329
 40
0.3122349054202277
 40
0.4683087054789881
 40
0.6244059586047294
 40
0.7805625919930861
 40
0.9366697864546376
 40
0.9999999999999999
 40
0.9999999999999999
 40
0.9999999999999999
 40
0.9999999999999999
 10
146.8435728769207
 20
234.8460765149474
 30
0.0
 10
146.1466399445822
 20
234.8554299562242
 30
0.0
 10
144.7527652662289
 20
234.8741369570652
 30
0.0
 10
142.3402332315735
 20
234.8803581395817
 30
0.0
 10
140.0314704251655
 20
234.8621360775784
 30
0.0
 10
138.030113281687
 20
234.8298421405874
 30
0.0
 10
136.6331376924307
 20
234.8079110966255
 30
0.0
 10
135.9396841763085
 20
234.8070403494524
 30
0.0
 10
136.0212198620065
 20
234.8300741748762
 30
0.0
 10
136.0447512755141
 20
234.8367217975223
 30
0.0
  0
SPLINE
  5
89
330
1F
100
AcDbEntity
  8
0
  6
Continuous
 62
     7
370
    25
100
AcDbSpline
210
0.0
220
0.0
230
1.0
 70
     8
 71
     3
 72
    11
 73
     7
 74
     0
 42
0.00000001
 43
0.00000001
 40
0.0
 40
0.0
 40
0.0
 40
0.0
 40
0.0949902664675182
 40
0.4386419685483824
 40
0.7821417997961074
 40
1.0
 40
1.0
 40
1.0
 40
1.0
 10
149.8697408293151
 20
234.8358918234954
 30
0.0
 10
149.8930642167772
 20
234.8310415930349
 30
0.0
 10
150.0007659526499
 20
234.8086444073416
 30
0.0
 10
149.3896584609384
 20
234.8069358556722
 30
0.0
 10
148.2637064527563
 20
234.8234658383749
 30
0.0
 10
147.240622800051
 20
234.8397548790479
 30
0.0
 10
146.8435728769207
 20
234.8460765149474
 30
0.0
  0
CIRCLE
  5
8A
330
1F
100
AcDbEntity
  8
0
  6
Continuous
 62
     7
370
    25
100
AcDbCircle
 10
142.9491444162
 20
91.7809342331
 30
0.0
 40
125.75
  0
LINE
  5
8B
330
1F
100
AcDbEntity
  8
0
  6
Continuous
 62
     7
370
    25
100
AcDbLine
 10
149.9491444162
 20
249.1309342331
 30
0.0
 11
135.9491444162
 21
249.1309342331
 31
0.0
  0
INSERT
  5
97
330
1F
100
AcDbEntity
  8
FORMAT
 62
     7
100
AcDbBlockReference
  2
SW_CENTERMARKSYMBOL_0
 10
142.9491444162
 20
91.7809342331
 30
0.0
  0
LINE
  5
98
330
1F
100
AcDbEntity
  8
0
  6
Continuous
 62
     7
370
    25
100
AcDbLine
 10
467.7157543904
 20
234.8776026949
 30
0.0
 11
462.6856184062
 21
234.7809342331
 31
0.0
  0
ARC
  5
99
330
1F
100
AcDbEntity
  8
0
  6
Continuous
 62
     7
370
    25
100
AcDbCircle
 10
564.1856184062
 20
-4915.844065767
 30
0.0
 40
5151.625000000026
100
AcDbArc
 50
90.0
 51
90.9183939291
  0
ARC
  5
9A
330
1F
100
AcDbEntity
  8
0
  6
Continuous
 62
     7
370
    25
100
AcDbCircle
 10
564.1856184062
 20
5099.4059342331
 30
0.0
 40
5151.625000000026
100
AcDbArc
 50
268.8710556494
 51
270.0
  0
LINE
  5
9B
330
1F
100
AcDbEntity
  8
0
  6
Continuous
 62
     7
370
    25
100
AcDbLine
 10
564.1856184062
 20
-52.2190657669
 30
0.0
 11
589.1856184062
 21
-52.2190657669
 31
0.0
  0
LINE
  5
9C
330
1F
100
AcDbEntity
  8
0
  6
Continuous
 62
     7
370
    25
100
AcDbLine
 10
589.1856184062
 20
235.7809342331
 30
0.0
 11
564.1856184062
 21
235.7809342331
 31
0.0
  0
ARC
  5
9D
330
1F
100
AcDbEntity
  8
0
  6
Continuous
 62
     7
370
    25
100
AcDbCircle
 10
589.1856184062
 20
-4915.844065767
 30
0.0
 40
5151.625000000025
100
AcDbArc
 50
89.082141067
 51
90.0
  0
LINE
  5
9E
330
1F
100
AcDbEntity
  8
0
  6
Continuous
 62
     7
370
    25
100
AcDbLine
 10
690.6856184062
 20
234.7809342331
 30
0.0
 11
685.6105895586
 21
234.878443315
 31
0.0
  0
ARC
  5
9F
330
1F
100
AcDbEntity
  8
0
  6
Continuous
 62
     7
370
    25
100
AcDbCircle
 10
589.1856184062
 20
5099.4059342331
 30
0.0
 40
5151.625000000026
100
AcDbArc
 50
270.0
 51
271.1289443506
  0
LINE
  5
A0
330
1F
100
AcDbEntity
  8
0
  6
Continuous
 62
     7
370
    25
100
AcDbLine
 10
481.6856184062
 20
235.1157280245
 30
0.0
 11
481.6856184062
 21
249.1309342331
 31
0.0
  0
LINE
  5
A1
330
1F
100
AcDbEntity
  8
0
  6
Continuous
 62
     7
370
    25
100
AcDbLine
 10
467.6856184062
 20
249.1309342331
 30
0.0
 11
467.6856184062
 21
234.8761821307
 31
0.0
  0
LINE
  5
A2
330
1F
100
AcDbEntity
  8
0
  6
Continuous
 62
     7
370
    25
100
AcDbLine
 10
685.6856184062
 20
234.8748367453
 30
0.0
 11
685.6856184062
 21
249.1309342331
 31
0.0
  0
LINE
  5
A3
330
1F
100
AcDbEntity
  8
0
  6
Continuous
 62
     7
370
    25
100
AcDbLine
 10
671.6856184062
 20
249.1309342331
 30
0.0
 11
671.6856184062
 21
235.1188151033
 31
0.0
  0
LINE
  5
A4
330
1F
100
AcDbEntity
  8
0
  6
Continuous
 62
     7
370
    25
100
AcDbLine
 10
462.6856184062
 20
91.7809342331
 30
0.0
 11
462.6856184062
 21
234.7809342331
 31
0.0
  0
LINE
  5
A5
330
1F
100
AcDbEntity
  8
0
  6
Continuous
 62
     7
370
    25
100
AcDbLine
 10
462.6856184062
 20
-51.2190657669
 30
0.0
 11
462.6856184062
 21
91.7809342331
 31
0.0
  0
SPLINE
  5
A6
330
1F
100
AcDbEntity
  8
0
  6
Continuous
 62
     7
370
    25
100
AcDbSpline
210
0.0
220
0.0
230
1.0
 70
     8
 71
     3
 72
    18
 73
    14
 74
     0
 42
0.00000001
 43
0.00000001
 40
0.0
 40
0.0
 40
0.0
 40
0.0
 40
0.0254890482580133
 40
0.1326095778711957
 40
0.23977956262017
 40
0.3471459979208186
 40
0.4546115681234937
 40
0.5619818819493987
 40
0.6692204876201363
 40
0.7764556979570875
 40
0.8837706747363437
 40
0.9911084484192789
 40
0.9999999999999999
 40
0.9999999999999999
 40
0.9999999999999999
 40
0.9999999999999999
 10
481.6138772325865
 20
235.1156908894851
 30
0.0
 10
481.6357770628077
 20
235.117096885577
 30
0.0
 10
481.7497133389558
 20
235.1244117349327
 30
0.0
 10
481.1696756293852
 20
235.086676169912
 30
0.0
 10
479.9011092813889
 20
235.0124735795464
 30
0.0
 10
477.9806198311535
 20
234.9212682697991
 30
0.0
 10
475.704246303382
 20
234.8470944803884
 30
0.0
 10
473.306820790734
 20
234.8084514829771
 30
0.0
 10
471.0735068323076
 20
234.8088561447015
 30
0.0
 10
469.2248444699872
 20
234.8360949366125
 30
0.0
 10
468.0738834910507
 20
234.8650315560371
 30
0.0
 10
467.5765073501724
 20
234.8802148686454
 30
0.0
 10
467.7057666625244
 20
234.8764508006087
 30
0.0
 10
467.7156550090364
 20
234.8761628491385
 30
0.0
  0
LINE
  5
A7
330
1F
100
AcDbEntity
  8
0
  6
Continuous
 62
     7
370
    25
100
AcDbLine
 10
690.6856184062
 20
91.7809342331
 30
0.0
 11
690.6856184062
 21
234.7809342331
 31
0.0
  0
LINE
  5
A8
330
1F
100
AcDbEntity
  8
0
  6
Continuous
 62
     7
370
    25
100
AcDbLine
 10
690.6856184062
 20
-51.2190657669
 30
0.0
 11
690.6856184062
 21
91.7809342331
 31
0.0
  0
SPLINE
  5
A9
330
1F
100
AcDbEntity
  8
0
  6
Continuous
 62
     7
370
    25
100
AcDbSpline
210
0.0
220
0.0
230
1.0
 70
     8
 71
     3
 72
    18
 73
    14
 74
     0
 42
0.00000001
 43
0.00000001
 40
0.0
 40
0.0
 40
0.0
 40
0.0
 40
0.0271457363893773
 40
0.1344315279409841
 40
0.2417334412302204
 40
0.3490761727636131
 40
0.4563849197692135
 40
0.5636154985766247
 40
0.6708667240664848
 40
0.7782569371357616
 40
0.8857244867631338
 40
0.9930709232140035
 40
0.9999999999999999
 40
0.9999999999999999
 40
0.9999999999999999
 40
0.9999999999999999
 10
685.6106690497933
 20
234.8748200106752
 30
0.0
 10
685.6332838108075
 20
234.8754884607058
 30
0.0
 10
685.7452769736949
 20
234.8787987690973
 30
0.0
 10
685.1545921996127
 20
234.8608663314756
 30
0.0
 10
683.8712553768437
 20
234.8305333539386
 30
0.0
 10
681.940951288133
 20
234.8064162185948
 30
0.0
 10
679.6611406877738
 20
234.8121102037283
 30
0.0
 10
677.2665363040138
 20
234.8575407510482
 30
0.0
 10
675.0393255779519
 20
234.9359730061281
 30
0.0
 10
673.1980788330283
 20
235.0274582528358
 30
0.0
 10
672.0605512981331
 20
235.0956950268285
 30
0.0
 10
671.5716804858408
 20
235.1275613078597
 30
0.0
 10
671.7015700512093
 20
235.1192821474565
 30
0.0
 10
671.7094458834558
 20
235.1187801419391
 30
0.0
  0
LINE
  5
AA
330
1F
100
AcDbEntity
  8
0
  6
Continuous
 62
     7
370
    25
100
AcDbLine
 10
481.6856184062
 20
249.1309342331
 30
0.0
 11
467.6856184062
 21
249.1309342331
 31
0.0
  0
LINE
  5
AB
330
1F
100
AcDbEntity
  8
0
  6
Continuous
 62
     7
370
    25
100
AcDbLine
 10
685.6856184062
 20
249.1309342331
 30
0.0
 11
671.6856184062
 21
249.1309342331
 31
0.0
  0
LINE
  5
AC
330
1F
100
AcDbEntity
  8
0
  6
Continuous
 62
     1
370
    25
100
AcDbLine
 10
564.1856184062
 20
91.7809342331
 30
0.0
 11
564.1856184062
 21
235.7809342331
 31
0.0
  0
LINE
  5
AD
330
1F
100
AcDbEntity
  8
0
  6
Continuous
 62
     1
370
    25
100
AcDbLine
 10
564.1856184062
 20
-52.2190657669
 30
0.0
 11
564.1856184062
 21
91.7809342331
 31
0.0
  0
LINE
  5
AE
330
1F
100
AcDbEntity
  8
0
  6
Continuous
 62
     1
370
    25
100
AcDbLine
 10
589.1856184062
 20
91.7809342331
 30
0.0
 11
589.1856184062
 21
235.7809342331
 31
0.0
  0
LINE
  5
AF
330
1F
100
AcDbEntity
  8
0
  6
Continuous
 62
     1
370
    25
100
AcDbLine
 10
589.1856184062
 20
-52.2190657669
 30
0.0
 11
589.1856184062
 21
91.7809342331
 31
0.0
  0
ARC
  5
B0
330
1F
100
AcDbEntity
  8
0
  6
Continuous
 62
     7
370
    25
100
AcDbCircle
 10
5150.5741444162
 20
513.6643772246
 30
0.0
 40
5151.625000000025
100
AcDbArc
 50
180.0
 51
181.1289443506
  0
ARC
  5
B1
330
1F
100
AcDbEntity
  8
0
  6
Continuous
 62
     7
370
    25
100
AcDbCircle
 10
-4864.6758555839
 20
513.6643772246
 30
0.0
 40
5151.625000000026
100
AcDbArc
 50
358.8710556494
 51
0.0
  0
LINE
  5
B2
330
1F
100
AcDbEntity
  8
0
  6
Continuous
 62
     7
370
    25
100
AcDbLine
 10
286.9491444162
 20
513.6643772246
 30
0.0
 11
286.9491444162
 21
538.6643772246
 31
0.0
  0
LINE
  5
B3
330
1F
100
AcDbEntity
  8
0
  6
Continuous
 62
     7
370
    25
100
AcDbLine
 10
-1.0508555838
 20
538.6643772246
 30
0.0
 11
-1.0508555838
 21
513.6643772246
 31
0.0
  0
ARC
  5
B4
330
1F
100
AcDbEntity
  8
0
  6
Continuous
 62
     7
370
    25
100
AcDbCircle
 10
5150.5741444162
 20
538.6643772246
 30
0.0
 40
5151.625000000025
100
AcDbArc
 50
178.8710556494
 51
180.0
  0
ARC
  5
B5
330
1F
100
AcDbEntity
  8
0
  6
Continuous
 62
     7
370
    25
100
AcDbCircle
 10
-4864.6758555839
 20
538.6643772246
 30
0.0
 40
5151.625000000026
100
AcDbArc
 50
0.0
 51
1.1289443506
  0
LINE
  5
B6
330
1F
100
AcDbEntity
  8
0
  6
Continuous
 62
     7
370
    25
100
AcDbLine
 10
285.9491444162
 20
412.1643772246
 30
0.0
 11
-0.0508555838
 21
412.1643772246
 31
0.0
  0
LINE
  5
B7
330
1F
100
AcDbEntity
  8
0
  6
Continuous
 62
     7
370
    25
100
AcDbLine
 10
285.9491444162
 20
640.1643772246
 30
0.0
 11
-0.0508555838
 21
640.1643772246
 31
0.0
  0
LINE
  5
B8
330
1F
100
AcDbEntity
  8
0
  6
Continuous
 62
     1
370
    25
100
AcDbLine
 10
286.9491444162
 20
513.6643772246
 30
0.0
 11
-1.0508555838
 21
513.6643772246
 31
0.0
  0
LINE
  5
B9
330
1F
100
AcDbEntity
  8
0
  6
Continuous
 62
     1
370
    25
100
AcDbLine
 10
286.9491444162
 20
538.6643772246
 30
0.0
 11
-1.0508555838
 21
538.6643772246
 31
0.0
  0
ARC
  5
BA
330
1F
100
AcDbEntity
  8
0
  6
Continuous
 62
     7
370
    25
100
AcDbCircle
 10
-278.6216112992
 20
5099.4059342331
 30
0.0
 40
5151.625000000026
100
AcDbArc
 50
270.0
 51
271.1289443506
  0
ARC
  5
BB
330
1F
100
AcDbEntity
  8
0
  6
Continuous
 62
     7
370
    25
100
AcDbCircle
 10
-278.6216112992
 20
-4915.844065767
 30
0.0
 40
5151.625000000026
100
AcDbArc
 50
89.0816075208
 51
90.0
  0
LINE
  5
BC
330
1F
100
AcDbEntity
  8
0
  6
Continuous
 62
     7
370
    25
100
AcDbLine
 10
-177.1216112992
 20
234.7809342331
 30
0.0
 11
-182.1518300225
 21
234.8776042445
 31
0.0
  0
LINE
  5
BD
330
1F
100
AcDbEntity
  8
0
  6
Continuous
 62
     7
370
    25
100
AcDbLine
 10
-278.6216112992
 20
235.7809342331
 30
0.0
 11
-303.6216112992
 21
235.7809342331
 31
0.0
  0
LINE
  5
BE
330
1F
100
AcDbEntity
  8
0
  6
Continuous
 62
     7
370
    25
100
AcDbLine
 10
-303.6216112992
 20
-52.2190657669
 30
0.0
 11
-278.6216112992
 21
-52.2190657669
 31
0.0
  0
ARC
  5
BF
330
1F
100
AcDbEntity
  8
0
  6
Continuous
 62
     7
370
    25
100
AcDbCircle
 10
-303.6216112992
 20
5099.4059342331
 30
0.0
 40
5151.625000000026
100
AcDbArc
 50
268.8710556494
 51
270.0
  0
LINE
  5
C0
330
1F
100
AcDbEntity
  8
0
  6
Continuous
 62
     7
370
    25
100
AcDbLine
 10
-400.0466359027
 20
234.8784423144
 30
0.0
 11
-405.1216112992
 21
234.7809342331
 31
0.0
  0
ARC
  5
C1
330
1F
100
AcDbEntity
  8
0
  6
Continuous
 62
     7
370
    25
100
AcDbCircle
 10
-303.6216112992
 20
-4915.844065767
 30
0.0
 40
5151.625000000025
100
AcDbArc
 50
90.0
 51
90.9178607478
  0
LINE
  5
C2
330
1F
100
AcDbEntity
  8
0
  6
Continuous
 62
     7
370
    25
100
AcDbLine
 10
-182.1216112992
 20
234.8761821307
 30
0.0
 11
-182.1216112992
 21
249.1309342331
 31
0.0
  0
LINE
  5
C3
330
1F
100
AcDbEntity
  8
0
  6
Continuous
 62
     7
370
    25
100
AcDbLine
 10
-196.1216112992
 20
249.1309342331
 30
0.0
 11
-196.1216112992
 21
235.1157280245
 31
0.0
  0
LINE
  5
C4
330
1F
100
AcDbEntity
  8
0
  6
Continuous
 62
     7
370
    25
100
AcDbLine
 10
-386.1216112992
 20
235.1188151033
 30
0.0
 11
-386.1216112992
 21
249.1309342331
 31
0.0
  0
LINE
  5
C5
330
1F
100
AcDbEntity
  8
0
  6
Continuous
 62
     7
370
    25
100
AcDbLine
 10
-400.1216112992
 20
249.1309342331
 30
0.0
 11
-400.1216112992
 21
234.8748367453
 31
0.0
  0
LINE
  5
C6
330
1F
100
AcDbEntity
  8
0
  6
Continuous
 62
     7
370
    25
100
AcDbLine
 10
-177.1216112992
 20
234.7809342331
 30
0.0
 11
-177.1216112992
 21
-51.2190657669
 31
0.0
  0
SPLINE
  5
C7
330
1F
100
AcDbEntity
  8
0
  6
Continuous
 62
     7
370
    25
100
AcDbSpline
210
0.0
220
0.0
230
1.0
 70
     8
 71
     3
 72
     9
 73
     5
 74
     0
 42
0.00000001
 43
0.00000001
 40
0.0
 40
0.0
 40
0.0
 40
0.0
 40
0.5674279609738716
 40
1.0
 40
1.0
 40
1.0
 40
1.0
 10
-194.9204936327705
 20
235.0472800130478
 30
0.0
 10
-195.3158916390623
 20
235.070930101833
 30
0.0
 10
-196.0127166697027
 20
235.1126095579257
 30
0.0
 10
-196.0386511116881
 20
235.1147604442428
 30
0.0
 10
-196.0498696261386
 20
235.1156908575227
 30
0.0
  0
SPLINE
  5
C8
330
1F
100
AcDbEntity
  8
0
  6
Continuous
 62
     7
370
    25
100
AcDbSpline
210
0.0
220
0.0
230
1.0
 70
     8
 71
     3
 72
    15
 73
    11
 74
     0
 42
0.00000001
 43
0.00000001
 40
0.0
 40
0.0
 40
0.0
 40
0.0
 40
0.1213888105267879
 40
0.2537600234270417
 40
0.3861863957588084
 40
0.518608762683474
 40
0.6509351047831569
 40
0.7832302435495505
 40
0.9156639483348916
 40
1.0
 40
1.0
 40
1.0
 40
1.0
 10
-182.1517009486622
 20
234.8761613085271
 30
0.0
 10
-182.2047992668216
 20
234.8744731338113
 30
0.0
 10
-182.3157998640066
 20
234.8709440502525
 30
0.0
 10
-183.4413092777941
 20
234.840705889949
 30
0.0
 10
-185.1706906159257
 20
234.8121445741844
 30
0.0
 10
-187.3630726493019
 20
234.8059799232221
 30
0.0
 10
-189.7504061152281
 20
234.8380942531712
 30
0.0
 10
-192.057143027801
 20
234.9071768417618
 30
0.0
 10
-193.8276823302355
 20
234.9869381220722
 30
0.0
 10
-194.6144105616813
 20
235.0303789879008
 30
0.0
 10
-194.9204936327705
 20
235.0472800130478
 30
0.0
  0
LINE
  5
C9
330
1F
100
AcDbEntity
  8
0
  6
Continuous
 62
     7
370
    25
100
AcDbLine
 10
-405.1216112992
 20
234.7809342331
 30
0.0
 11
-405.1216112992
 21
-51.2190657669
 31
0.0
  0
SPLINE
  5
CA
330
1F
100
AcDbEntity
  8
0
  6
Continuous
 62
     7
370
    25
100
AcDbSpline
210
0.0
220
0.0
230
1.0
 70
     8
 71
     3
 72
     9
 73
     5
 74
     0
 42
0.00000001
 43
0.00000001
 40
0.0
 40
0.0
 40
0.0
 40
0.0
 40
0.572359218457301
 40
1.0
 40
1.0
 40
1.0
 40
1.0
 10
-398.9382621365515
 20
234.8460765149474
 30
0.0
 10
-399.3314894743763
 20
234.8559942654761
 30
0.0
 10
-400.0185183980732
 20
234.8733221082171
 30
0.0
 10
-400.0382448984593
 20
234.8743717101006
 30
0.0
 10
-400.0466807545016
 20
234.8748205626704
 30
0.0
  0
SPLINE
  5
CB
330
1F
100
AcDbEntity
  8
0
  6
Continuous
 62
     7
370
    25
100
AcDbSpline
210
0.0
220
0.0
230
1.0
 70
     8
 71
     3
 72
    15
 73
    11
 74
     0
 42
0.00000001
 43
0.00000001
 40
0.0
 40
0.0
 40
0.0
 40
0.0
 40
0.1234240448348358
 40
0.2553545996104478
 40
0.3875016620911271
 40
0.5198345498144463
 40
0.6521126144690824
 40
0.7842129529964036
 40
0.916254912099591
 40
1.0
 40
1.0
 40
1.0
 40
1.0
 10
-386.145438884397
 20
235.1187801350646
 30
0.0
 10
-386.2034354025461
 20
235.1149298932954
 30
0.0
 10
-386.3234256175046
 20
235.1069640472019
 30
0.0
 10
-387.4633794567461
 20
235.0369390178887
 30
0.0
 10
-389.1998926385928
 20
234.9482545342655
 30
0.0
 10
-391.3972540147178
 20
234.8661430713227
 30
0.0
 10
-393.78786836341
 20
234.8157174927911
 30
0.0
 10
-396.0929708979797
 20
234.805170317624
 30
0.0
 10
-397.8554460687734
 20
234.823724843099
 30
0.0
 10
-398.6355215748247
 20
234.8398272932261
 30
0.0
 10
-398.9382621365515
 20
234.8460765149474
 30
0.0
  0
LINE
  5
CC
330
1F
100
AcDbEntity
  8
0
  6
Continuous
 62
     7
370
    25
100
AcDbLine
 10
-182.1216112992
 20
249.1309342331
 30
0.0
 11
-196.1216112992
 21
249.1309342331
 31
0.0
  0
LINE
  5
CD
330
1F
100
AcDbEntity
  8
0
  6
Continuous
 62
     7
370
    25
100
AcDbLine
 10
-386.1216112992
 20
249.1309342331
 30
0.0
 11
-400.1216112992
 21
249.1309342331
 31
0.0
  0
LINE
  5
CE
330
1F
100
AcDbEntity
  8
0
  6
Continuous
 62
     1
370
    25
100
AcDbLine
 10
-278.6216112992
 20
235.7809342331
 30
0.0
 11
-278.6216112992
 21
-52.2190657669
 31
0.0
  0
LINE
  5
CF
330
1F
100
AcDbEntity
  8
0
  6
Continuous
 62
     1
370
    25
100
AcDbLine
 10
-303.6216112992
 20
235.7809342331
 30
0.0
 11
-303.6216112992
 21
-52.2190657669
 31
0.0
  0
ARC
  5
D0
330
1F
100
AcDbEntity
  8
0
  6
Continuous
 62
     7
370
    25
100
AcDbCircle
 10
-4864.6758555839
 20
-308.8342350501
 30
0.0
 40
5151.625000000026
100
AcDbArc
 50
0.0
 51
1.1289443506
  0
ARC
  5
D1
330
1F
100
AcDbEntity
  8
0
  6
Continuous
 62
     7
370
    25
100
AcDbCircle
 10
5150.5741444162
 20
-308.8342350501
 30
0.0
 40
5151.625000000025
100
AcDbArc
 50
178.8710556494
 51
180.0
  0
LINE
  5
D2
330
1F
100
AcDbEntity
  8
0
  6
Continuous
 62
     7
370
    25
100
AcDbLine
 10
-1.0508555838
 20
-308.8342350501
 30
0.0
 11
-1.0508555838
 21
-333.8342350501
 31
0.0
  0
LINE
  5
D3
330
1F
100
AcDbEntity
  8
0
  6
Continuous
 62
     7
370
    25
100
AcDbLine
 10
286.9491444162
 20
-333.8342350501
 30
0.0
 11
286.9491444162
 21
-308.8342350501
 31
0.0
  0
ARC
  5
D4
330
1F
100
AcDbEntity
  8
0
  6
Continuous
 62
     7
370
    25
100
AcDbCircle
 10
-4864.6758555839
 20
-333.8342350501
 30
0.0
 40
5151.625000000026
100
AcDbArc
 50
358.8710556494
 51
0.0
  0
ARC
  5
D5
330
1F
100
AcDbEntity
  8
0
  6
Continuous
 62
     7
370
    25
100
AcDbCircle
 10
5150.5741444162
 20
-333.8342350501
 30
0.0
 40
5151.625000000025
100
AcDbArc
 50
180.0
 51
181.1289443506
  0
CIRCLE
  5
D6
330
1F
100
AcDbEntity
  8
0
  6
Continuous
 62
     7
370
    25
100
AcDbCircle
 10
142.9491444162
 20
-219.3342350501
 30
0.0
 40
5.0
  0
CIRCLE
  5
D7
330
1F
100
AcDbEntity
  8
0
  6
Continuous
 62
     7
370
    25
100
AcDbCircle
 10
142.9491444162
 20
-219.3342350501
 30
0.0
 40
7.0
  0
CIRCLE
  5
D8
330
1F
100
AcDbEntity
  8
0
  6
Continuous
 62
     7
370
    25
100
AcDbCircle
 10
142.9491444162
 20
-423.3342350501
 30
0.0
 40
7.0
  0
CIRCLE
  5
D9
330
1F
100
AcDbEntity
  8
0
  6
Continuous
 62
     7
370
    25
100
AcDbCircle
 10
142.9491444162
 20
-423.3342350501
 30
0.0
 40
5.0
  0
LINE
  5
DA
330
1F
100
AcDbEntity
  8
0
  6
Continuous
 62
     7
370
    25
100
AcDbLine
 10
-0.0508555838
 20
-207.3342350501
 30
0.0
 11
285.9491444162
 21
-207.3342350501
 31
0.0
  0
LINE
  5
DB
330
1F
100
AcDbEntity
  8
0
  6
Continuous
 62
     7
370
    25
100
AcDbLine
 10
-0.0508555838
 20
-435.3342350501
 30
0.0
 11
285.9491444162
 21
-435.3342350501
 31
0.0
  0
LINE
  5
DC
330
1F
100
AcDbEntity
  8
0
  6
Continuous
 62
     1
370
    25
100
AcDbLine
 10
-1.0508555838
 20
-308.8342350501
 30
0.0
 11
286.9491444162
 21
-308.8342350501
 31
0.0
  0
LINE
  5
DD
330
1F
100
AcDbEntity
  8
0
  6
Continuous
 62
     1
370
    25
100
AcDbLine
 10
-1.0508555838
 20
-333.8342350501
 30
0.0
 11
286.9491444162
 21
-333.8342350501
 31
0.0
  0
INSERT
  5
E9
330
1F
100
AcDbEntity
  8
FORMAT
 62
     7
100
AcDbBlockReference
  2
SW_CENTERMARKSYMBOL_1
 10
142.9491444162
 20
-219.3342350501
 30
0.0
  0
INSERT
  5
F5
330
1F
100
AcDbEntity
  8
FORMAT
 62
     7
100
AcDbBlockReference
  2
SW_CENTERMARKSYMBOL_2
 10
142.9491444162
 20
-423.3342350501
 30
0.0
  0
SPLINE
  5
F6
330
1F
100
AcDbEntity
  8
0
  6
Continuous
 62
     7
370
    25
100
AcDbSpline
210
0.0
220
0.0
230
1.0
 70
     8
 71
     3
 72
    10
 73
     6
 74
     0
 42
0.00000001
 43
0.00000001
 40
0.0
 40
0.0
 40
0.0
 40
0.0
 40
0.3333892306891876
 40
0.7132145297678244
 40
1.0
 40
1.0
 40
1.0
 40
1.0
 10
516.9283079652436
 20
-199.2380817430717
 30
0.0
 10
508.8487683305362
 20
-203.921752980499
 30
0.0
 10
491.5643316095418
 20
-213.9414598926967
 30
0.0
 10
467.4806370941342
 20
-228.2472086972936
 30
0.0
 10
451.5338972359808
 20
-237.9566165192593
 30
0.0
 10
444.6733820756588
 20
-242.1337423865435
 30
0.0
  0
SPLINE
  5
F7
330
1F
100
AcDbEntity
  8
0
  6
Continuous
 62
     7
370
    25
100
AcDbSpline
210
0.0
220
0.0
230
1.0
 70
     8
 71
     3
 72
    11
 73
     7
 74
     0
 42
0.00000001
 43
0.00000001
 40
0.0
 40
0.0
 40
0.0
 40
0.0
 40
0.1936934562698842
 40
0.5736132276262156
 40
0.9535136528105046
 40
1.0
 40
1.0
 40
1.0
 40
1.0
 10
587.6150884297433
 20
-489.7450957940196
 30
0.0
 10
592.3808736129132
 20
-487.1534859221378
 30
0.0
 10
606.4945017846478
 20
-479.4785663250259
 30
0.0
 10
629.7941272853237
 20
-466.4191788670452
 30
0.0
 10
649.4554196164578
 20
-455.300329269188
 30
0.0
 10
659.7761909872089
 20
-449.2881137676362
 30
0.0
 10
660.9014016932848
 20
-448.6326386091849
 30
0.0
  0
LINE
  5
F8
330
1F
100
AcDbEntity
  8
0
  6
Continuous
 62
     7
370
    25
100
AcDbLine
 10
534.5983582558
 20
-189.0192326937
 30
0.0
 11
516.9206887261
 21
-199.2243340915
 31
0.0
  0
LINE
  5
F9
330
1F
100
AcDbEntity
  8
0
  6
Continuous
 62
     7
370
    25
100
AcDbLine
 10
660.9089862257
 20
-448.6464064571
 30
0.0
 11
678.5866557554
 21
-438.4413050593
 31
0.0
  0
SPLINE
  5
FA
330
1F
100
AcDbEntity
  8
0
  6
Continuous
 62
     7
370
    25
100
AcDbSpline
210
0.0
220
0.0
230
1.0
 70
     8
 71
     3
 72
    11
 73
     7
 74
     0
 42
0.00000001
 43
0.00000001
 40
0.0
 40
0.0
 40
0.0
 40
0.0
 40
0.1936939648944865
 40
0.5736137217395411
 40
0.9535141324102369
 40
1.0
 40
1.0
 40
1.0
 40
1.0
 10
607.8922941122531
 20
-147.920522588496
 30
0.0
 10
603.1264962256502
 20
-150.5121393521835
 30
0.0
 10
589.0128553371387
 20
-158.1870658164709
 30
0.0
 10
565.713217205302
 20
-171.2464602980826
 30
0.0
 10
546.0519364680761
 20
-182.365303208838
 30
0.0
 10
535.7311766379183
 20
-188.3775119291063
 30
0.0
 10
534.6059774949072
 20
-189.0329803452867
 30
0.0
  0
SPLINE
  5
FB
330
1F
100
AcDbEntity
  8
0
  6
Continuous
 62
     7
370
    25
100
AcDbSpline
210
0.0
220
0.0
230
1.0
 70
     8
 71
     3
 72
    10
 73
     6
 74
     0
 42
0.00000001
 43
0.00000001
 40
0.0
 40
0.0
 40
0.0
 40
0.0
 40
0.3333894483323225
 40
0.713215539759848
 40
1.0
 40
1.0
 40
1.0
 40
1.0
 10
678.5790712229475
 20
-438.4275372114021
 30
0.0
 10
686.6585992657253
 20
-433.7438726674371
 30
0.0
 10
703.9430243813357
 20
-423.7241724265096
 30
0.0
 10
728.0266687326015
 20
-409.4184535853946
 30
0.0
 10
743.9733701670999
 20
-399.7090692672411
 30
0.0
 10
750.8338468758207
 20
-395.5319668586761
 30
0.0
  0
LINE
  5
FC
330
1F
100
AcDbEntity
  8
0
  6
Continuous
 62
     7
370
    25
100
AcDbLine
 10
532.6287805597
 20
-243.5248885311
 30
0.0
 11
532.6287805597
 21
-231.9869365281
 31
0.0
  0
LINE
  5
FD
330
1F
100
AcDbEntity
  8
0
  6
Continuous
 62
     7
370
    25
100
AcDbLine
 10
518.6287805597
 20
-231.9869365281
 30
0.0
 11
518.6287805597
 21
-243.6642221182
 31
0.0
  0
LINE
  5
FE
330
1F
100
AcDbEntity
  8
0
  6
Continuous
 62
     7
370
    25
100
AcDbLine
 10
676.8785639218
 20
-160.3899654494
 30
0.0
 11
676.8785639218
 21
-148.7133091222
 31
0.0
  0
LINE
  5
FF
330
1F
100
AcDbEntity
  8
0
  6
Continuous
 62
     7
370
    25
100
AcDbLine
 10
662.8785639218
 20
-148.7133091222
 30
0.0
 11
662.8785639218
 21
-160.2505602807
 31
0.0
  0
LWPOLYLINE
  5
100
330
1F
100
AcDbEntity
  8
0
  6
Continuous
 62
     7
370
    25
100
AcDbPolyline
 90
      132
 70
   128
 43
0.0
 10
416.0272294758
 20
-306.994901954
 10
416.1435148061
 20
-301.4637344659
 10
416.4921033371
 20
-296.0795490249
 10
417.0721933039
 20
-290.8547294301
 10
417.8824504812
 20
-285.8012929338
 10
418.9210112513
 20
-280.930862602
 10
420.1854868912
 20
-276.2546405806
 10
421.6729690664
 20
-271.78338233
 10
423.3800365204
 20
-267.5273718874
 10
425.3027629431
 20
-263.4963982134
 10
427.4367260023
 20
-259.6997326764
 10
429.7770175145
 20
-256.146107729
 10
432.3182547343
 20
-252.8436968224
 10
435.0545927345
 20
-249.8000956074
 10
437.9797378502
 20
-247.0223044645
 10
441.0869621537
 20
-244.5167124022
 10
444.3691189297
 20
-242.2890823626
 10
447.8186591124
 20
-240.3445379662
 10
451.4276486488
 20
-238.6875517274
 10
455.1877867473
 20
-237.3219347676
 10
459.0904249698
 20
-236.2508280496
 10
463.1265871234
 20
-235.4766951532
 10
467.2869899057
 20
-235.0013166089
 10
471.562064257
 20
-234.8257858025
 10
475.9419773693
 20
-234.9505064606
 10
480.4166553022
 20
-235.3751917215
 10
484.9758061528
 20
-236.0988647957
 10
489.6089437283
 20
-237.1198612118
 10
494.3054116637
 20
-238.4358326454
 10
499.0544079323
 20
-240.0437523199
 10
503.8450096904
 20
-241.9399219687
 10
508.6661984005
 20
-244.1199803408
 10
513.506885174
 20
-246.578913232
 10
518.3559362764
 20
-249.3110650179
 10
523.2021987345
 20
-252.3101516618
 10
528.0345259896
 20
-255.5692751684
 10
532.841803534
 20
-259.0809394491
 10
537.6129744753
 20
-262.8370675636
 10
542.3370649675
 20
-266.8290202969
 10
547.0032094511
 20
-271.0476160297
 10
551.6006756442
 20
-275.4831518566
 10
556.1188892272
 20
-280.1254259031
 10
560.5474581642
 20
-284.9637607902
 10
564.8761966046
 20
-289.9870281926
 10
569.0951483113
 20
-295.1836744342
 10
573.1946095603
 20
-300.5417470622
 10
577.1651514592
 20
-306.0489223378
 10
580.9976416344
 20
-311.6925335814
 10
584.6832652358
 20
-317.4596003063
 10
588.2135452109
 20
-323.3368580743
 10
591.5803618027
 20
-329.3107890041
 10
594.7759712251
 20
-335.3676528631
 10
597.793023474
 20
-341.4935186704
 10
600.6245792326
 20
-347.6742967383
 10
603.264125832
 20
-353.8957710792
 10
605.7055922303
 20
-360.1436321027
 10
607.9433629765
 20
-366.4035095283
 10
609.9722911263
 20
-372.6610054373
 10
611.78771008
 20
-378.9017273886
 10
613.3854443156
 20
-385.1113215217
 10
614.7618189933
 20
-391.275505571
 10
615.9136684073
 20
-397.3801017158
 10
616.8383432669
 20
-403.4110691894
 10
617.5337167903
 20
-409.3545365731
 10
617.9981895963
 20
-415.1968337017
 10
618.2306933823
 20
-420.9245231044
 10
618.2306933823
 20
-426.5244309122
 10
617.9981895963
 20
-431.9836771576
 10
617.5337167903
 20
-437.2897053992
 10
616.8383432669
 20
-442.4303116022
 10
615.9136684073
 20
-447.3936722074
 10
614.7618189933
 20
-452.1683713266
 10
613.3854443156
 20
-456.7434269986
 10
611.78771008
 20
-461.1083164488
 10
609.9722911263
 20
-465.2530002916
 10
607.9433629765
 20
-469.1679456214
 10
605.7055922303
 20
-472.8441479385
 10
603.264125832
 20
-476.2731518596
 10
600.6245792326
 20
-479.447070566
 10
597.793023474
 20
-482.3586039428
 10
594.7759712251
 20
-485.00105537
 10
591.5803618027
 20
-487.3683471247
 10
588.2135452109
 20
-489.4550343599
 10
584.6832652358
 20
-491.2563176282
 10
580.9976416344
 20
-492.7680539202
 10
577.1651514592
 20
-493.9867661941
 10
573.1946095603
 20
-494.9096513726
 10
569.0951483113
 20
-495.5345867903
 10
564.8761966046
 20
-495.8601350755
 10
560.5474581642
 20
-495.8855474569
 10
556.1188892272
 20
-495.6107654851
 10
551.6006756442
 20
-495.0364211675
 10
547.0032094511
 20
-494.1638355144
 10
542.3370649675
 20
-492.9950155009
 10
537.6129744753
 20
-491.5326494502
 10
532.841803534
 20
-489.7801008514
 10
528.0345259896
 20
-487.7414006222
 10
523.2021987345
 20
-485.4212378385
 10
518.3559362764
 20
-482.8249489492
 10
513.506885174
 20
-479.9585055018
 10
508.6661984005
 20
-476.8285004081
 10
503.8450096904
 20
-473.4421327802
 10
499.0544079323
 20
-469.8071913721
 10
494.3054116637
 20
-465.9320366655
 10
489.6089437283
 20
-461.8255816405
 10
484.9758061528
 20
-457.4972712751
 10
480.4166553022
 20
-452.957060822
 10
475.9419773693
 20
-448.2153929106
 10
471.562064257
 20
-443.2831735292
 10
467.2869899057
 20
-438.1717469403
 10
463.1265871234
 20
-432.8928695889
 10
459.0904249698
 20
-427.458683062
 10
455.1877867473
 20
-421.8816861629
 10
451.4276486488
 20
-416.1747061631
 10
447.8186591124
 20
-410.3508692994
 10
444.3691189297
 20
-404.4235705834
 10
441.0869621537
 20
-398.406442992
 10
437.9797378502
 20
-392.3133261114
 10
435.0545927345
 20
-386.1582343058
 10
432.3182547343
 20
-379.9553244835
 10
429.7770175145
 20
-373.718863536
 10
427.4367260023
 20
-367.4631955232
 10
425.3027629431
 20
-361.202708682
 10
423.3800365204
 20
-354.9518023328
 10
421.6729690664
 20
-348.7248537606
 10
420.1854868912
 20
-342.5361851465
 10
418.9210112513
 20
-336.4000306268
 10
417.8824504812
 20
-330.3305035533
 10
417.0721933039
 20
-324.341564033
 10
416.4921033371
 20
-318.4469868186
 10
416.1435148061
 20
-312.6603296266
 10
416.0272294758
 20
-306.994901954
  0
SPLINE
  5
101
330
1F
100
AcDbEntity
  8
0
  6
Continuous
 62
     7
370
    25
100
AcDbSpline
210
0.0
220
0.0
230
1.0
 70
     8
 71
     3
 72
    12
 73
     8
 74
     0
 42
0.00000001
 43
0.00000001
 40
0.0
 40
0.0
 40
0.0
 40
0.0
 40
0.2452843553139827
 40
0.4905718125862228
 40
0.7357891334651895
 40
0.9810433029263608
 40
1.0
 40
1.0
 40
1.0
 40
1.0
 10
524.269564082235
 20
-247.6152078037263
 30
0.0
 10
523.5137643589627
 20
-247.4755929156775
 30
0.0
 10
522.0021553542902
 20
-247.1963613739575
 30
0.0
 10
520.163654580674
 20
-246.2726597558361
 30
0.0
 10
519.0136623076279
 20
-245.105862568255
 30
0.0
 10
518.5187170222143
 20
-244.1768338441758
 30
0.0
 10
518.6477207054218
 20
-243.7007169946677
 30
0.0
 10
518.6569765084704
 20
-243.6665563902756
 30
0.0
  0
SPLINE
  5
102
330
1F
100
AcDbEntity
  8
0
  6
Continuous
 62
     7
370
    25
100
AcDbSpline
210
0.0
220
0.0
230
1.0
 70
     8
 71
     3
 72
    13
 73
     9
 74
     0
 42
0.00000001
 43
0.00000001
 40
0.0
 40
0.0
 40
0.0
 40
0.0
 40
0.1154213111905165
 40
0.3065383233742824
 40
0.4975761593134597
 40
0.6883573206872756
 40
0.8790541696780896
 40
1.0
 40
1.0
 40
1.0
 40
1.0
 10
532.533977848334
 20
-243.5229634992101
 30
0.0
 10
532.5430913248184
 20
-243.8120920357443
 30
0.0
 10
532.5672950855699
 20
-244.5799656278452
 30
0.0
 10
531.7219427495488
 20
-245.7561835883917
 30
0.0
 10
530.1865860828834
 20
-246.8478566510335
 30
0.0
 10
528.107523599979
 20
-247.5421468925973
 30
0.0
 10
526.0356494283074
 20
-247.7688537834261
 30
0.0
 10
524.7633373883741
 20
-247.6581651180713
 30
0.0
 10
524.269564082235
 20
-247.6152078037263
 30
0.0
  0
LWPOLYLINE
  5
103
330
1F
100
AcDbEntity
  8
0
  6
Continuous
 62
     7
370
    25
100
AcDbPolyline
 90
      124
 70
   128
 43
0.0
 10
428.2248214513
 20
-314.0364219184
 10
428.3408107901
 20
-308.8604789937
 10
428.6884762035
 20
-303.8319579532
 10
429.2669106723
 20
-298.9639776341
 10
430.0746051269
 20
-294.2692380412
 10
431.1094523847
 20
-289.7599872141
 10
432.3687526474
 20
-285.4479892733
 10
433.8492205443
 20
-281.3444937292
 10
435.5469937038
 20
-277.4602061331
 10
437.4576428295
 20
-273.8052601478
 10
439.5761832561
 20
-270.3891911101
 10
441.8970879534
 20
-267.220911154
 10
444.4143019461
 20
-264.3086859602
 10
447.1212581103
 20
-261.6601131918
 10
450.0108943064
 20
-259.2821026726
 10
453.0756718035
 20
-257.1808583607
 10
456.3075949472
 20
-255.3618621624
 10
459.6982320188
 20
-253.8298596312
 10
463.2387372334
 20
-252.5888475868
 10
466.9198738173
 20
-251.6420636879
 10
470.7320381052
 20
-250.9919779855
 10
474.6652845959
 20
-250.6402864791
 10
478.7093518984
 20
-250.5879066917
 10
482.8536895028
 20
-250.8349752761
 10
487.0874853055
 20
-251.3808476585
 10
491.3996938167
 20
-252.2240997204
 10
495.7790649767
 20
-253.3625315133
 10
500.2141735062
 20
-254.7931729986
 10
504.6934487134
 20
-256.5122917961
 10
509.2052046808
 20
-258.5154029212
 10
513.7376707521
 20
-260.7972804855
 10
518.279022241
 20
-263.3519713312
 10
522.8174112799
 20
-266.1728105614
 10
527.3409977299
 20
-269.2524389287
 10
531.8379800706
 20
-272.5828220342
 10
536.2966261884
 20
-276.1552712889
 10
540.7053039848
 20
-279.9604665803
 10
545.0525117227
 20
-283.9884805886
 10
549.3269080335
 20
-288.228804685
 10
553.5173415053
 20
-292.6703763481
 10
557.6128797755
 20
-297.3016080247
 10
561.6028380526
 20
-302.11041736
 10
565.4768069908
 20
-307.0842587195
 10
569.2246798476
 20
-312.2101559191
 10
572.8366788506
 20
-317.4747360782
 10
576.3033807068
 20
-322.8642645083
 10
579.6157411869
 20
-328.3646805451
 10
582.7651187206
 20
-333.9616342312
 10
585.7432969415
 20
-339.6405237534
 10
588.5425061227
 20
-345.3865335374
 10
591.155443447
 20
-351.1846728998
 10
593.5752920593
 20
-357.0198151569
 10
595.7957388508
 20
-362.8767370889
 10
597.8109909295
 20
-368.7401586552
 10
599.6157907327
 20
-374.5947828583
 10
601.2054297438
 20
-380.4253356523
 10
602.5757607761
 20
-386.2166057906
 10
603.7232087925
 20
-391.9534845107
 10
604.6447802321
 20
-397.6210049509
 10
605.3380708201
 20
-403.2043811976
 10
605.8012718407
 20
-408.6890468597
 10
606.0331748553
 20
-414.0606930706
 10
606.0331748553
 20
-419.3053058188
 10
605.8012718407
 20
-424.4092025084
 10
605.3380708201
 20
-429.3590676556
 10
604.6447802321
 20
-434.1419876276
 10
603.7232087925
 20
-438.7454843321
 10
602.5757607761
 20
-443.1575477719
 10
601.2054297438
 20
-447.3666673773
 10
599.6157907327
 20
-451.3618620357
 10
597.8109909295
 20
-455.1327087406
 10
595.7957388508
 20
-458.6693697833
 10
593.5752920593
 20
-461.9626184191
 10
591.155443447
 20
-465.0038629383
 10
588.5425061227
 20
-467.7851690811
 10
585.7432969415
 20
-470.2992807374
 10
582.7651187206
 20
-472.5396388769
 10
579.6157411869
 20
-474.5003986611
 10
576.3033807068
 20
-476.1764446916
 10
572.8366788506
 20
-477.5634043556
 10
569.2246798476
 20
-478.6576592337
 10
565.4768069908
 20
-479.45635454
 10
561.6028380526
 20
-479.9574065694
 10
557.6128797755
 20
-480.1595081346
 10
553.5173415053
 20
-480.0621319755
 10
549.3269080335
 20
-479.6655321356
 10
545.0525117227
 20
-478.9707432983
 10
540.7053039848
 20
-477.9795780887
 10
536.2966261884
 20
-476.6946223433
 10
531.8379800706
 20
-475.1192283652
 10
527.3409977299
 20
-473.2575061773
 10
522.8174112799
 20
-471.1143128003
 10
518.279022241
 20
-468.6952395809
 10
513.7376707521
 20
-466.006597605
 10
509.2052046808
 20
-463.0554012325
 10
504.6934487134
 20
-459.8493497977
 10
500.2141735062
 20
-456.3968075229
 10
495.7790649767
 20
-452.7067816965
 10
491.3996938167
 20
-448.7888991748
 10
487.0874853055
 20
-444.6533812657
 10
482.8536895028
 20
-440.3110170634
 10
478.7093518984
 20
-435.7731353003
 10
474.6652845959
 20
-431.0515747917
 10
470.7320381052
 20
-426.1586535499
 10
466.9198738173
 20
-421.1071366478
 10
463.2387372334
 20
-415.9102029161
 10
459.6982320188
 20
-410.5814105617
 10
456.3075949472
 20
-405.1346617954
 10
453.0756718035
 20
-399.5841665627
 10
450.0108943064
 20
-393.944405472
 10
447.1212581103
 20
-388.230092016
 10
444.4143019461
 20
-382.4561341861
 10
441.8970879534
 20
-376.637595579
 10
439.5761832561
 20
-370.7896560975
 10
437.4576428295
 20
-364.9275723482
 10
435.5469937038
 20
-359.0666378381
 10
433.8492205443
 20
-353.2221430762
 10
432.3687526474
 20
-347.409335682
 10
431.1094523847
 20
-341.6433806063
 10
430.0746051269
 20
-335.9393205676
 10
429.2669106723
 20
-330.3120368072
 10
428.6884762035
 20
-324.7762102659
 10
428.3408107901
 20
-319.3462832832
 10
428.2248214513
 20
-314.0364219184
  0
LWPOLYLINE
  5
104
330
1F
100
AcDbEntity
  8
0
  6
Continuous
 62
     7
370
    25
100
AcDbPolyline
 90
       15
 70
   128
 43
0.0
 10
607.8725385982
 20
-147.889634803
 10
609.0390052229
 20
-147.2740132184
 10
612.6479947593
 20
-145.6170269796
 10
616.4081328579
 20
-144.2514100198
 10
620.3107710804
 20
-143.1803033018
 10
624.3469332339
 20
-142.4061704054
 10
628.5073360162
 20
-141.9307918611
 10
632.7824103675
 20
-141.7552610547
 10
637.1623234799
 20
-141.8799817128
 10
641.6370014127
 20
-142.3046669737
 10
646.1961522634
 20
-143.0283400479
 10
650.8292898389
 20
-144.049336464
 10
655.5257577743
 20
-145.3653078976
 10
660.2747540428
 20
-146.9732275721
 10
662.9846492481
 20
-148.0124474904
  0
LWPOLYLINE
  5
105
330
1F
100
AcDbEntity
  8
0
  6
Continuous
 62
     7
370
    25
100
AcDbPolyline
 90
       51
 70
   128
 43
0.0
 10
676.8785639218
 20
-154.6873838688
 10
679.5762823869
 20
-156.2405402701
 10
684.4225448451
 20
-159.239626914
 10
689.2548721001
 20
-162.4987504206
 10
694.0621496445
 20
-166.0104147013
 10
698.8333205858
 20
-169.7665428159
 10
703.557411078
 20
-173.7584955491
 10
708.2235555616
 20
-177.9770912819
 10
712.8210217547
 20
-182.4126271088
 10
717.3392353378
 20
-187.0549011554
 10
721.7678042747
 20
-191.8932360424
 10
726.0965427151
 20
-196.9165034448
 10
730.3154944219
 20
-202.1131496864
 10
734.4149556708
 20
-207.4712223144
 10
738.3854975697
 20
-212.97839759
 10
742.2179877449
 20
-218.6220088336
 10
745.9036113463
 20
-224.3890755585
 10
749.4338913214
 20
-230.2663333265
 10
752.8007079132
 20
-236.2402642563
 10
755.9963173356
 20
-242.2971281153
 10
759.0133695845
 20
-248.4229939226
 10
761.8449253432
 20
-254.6037719905
 10
764.4844719425
 20
-260.8252463314
 10
766.9259383408
 20
-267.073107355
 10
769.1637090871
 20
-273.3329847806
 10
771.1926372369
 20
-279.5904806895
 10
773.0080561905
 20
-285.8312026408
 10
774.6057904261
 20
-292.0407967739
 10
775.9821651039
 20
-298.2049808232
 10
777.1340145178
 20
-304.3095769681
 10
778.0586893774
 20
-310.3405444416
 10
778.7540629009
 20
-316.2840118253
 10
779.2185357068
 20
-322.1263089539
 10
779.4510394928
 20
-327.8539983566
 10
779.4510394928
 20
-333.4539061644
 10
779.2185357068
 20
-338.9131524098
 10
778.7540629009
 20
-344.2191806514
 10
778.0586893774
 20
-349.3597868544
 10
777.1340145178
 20
-354.3231474597
 10
775.9821651039
 20
-359.0978465788
 10
774.6057904261
 20
-363.6729022508
 10
773.0080561905
 20
-368.037791701
 10
771.1926372369
 20
-372.1824755439
 10
769.1637090871
 20
-376.0974208737
 10
766.9259383408
 20
-379.7736231907
 10
764.4844719425
 20
-383.2026271118
 10
761.8449253432
 20
-386.3765458182
 10
759.0133695845
 20
-389.288079195
 10
755.9963173356
 20
-391.9305306223
 10
752.8007079132
 20
-394.2978223769
 10
750.8470553063
 20
-395.5555780291
  0
SPLINE
  5
106
330
1F
100
AcDbEntity
  8
0
  6
Continuous
 62
     7
370
    25
100
AcDbSpline
210
0.0
220
0.0
230
1.0
 70
     8
 71
     3
 72
    12
 73
     8
 74
     0
 42
0.00000001
 43
0.00000001
 40
0.0
 40
0.0
 40
0.0
 40
0.0
 40
0.2442354723316288
 40
0.4884831521389508
 40
0.7324743047849515
 40
0.9765781026505913
 40
1.0
 40
1.0
 40
1.0
 40
1.0
 10
668.5505854121817
 20
-164.1808164745089
 30
0.0
 10
667.7945380197888
 20
-164.0327228167736
 30
0.0
 10
666.2824054459376
 20
-163.736528099226
 30
0.0
 10
664.438262713763
 20
-162.813565225692
 30
0.0
 10
663.2764976877481
 20
-161.6690342839462
 30
0.0
 10
662.7739706735479
 20
-160.7581357161681
 30
0.0
 10
662.9016261846584
 20
-160.2939102286492
 30
0.0
 10
662.9128024355039
 20
-160.2532672477688
 30
0.0
  0
SPLINE
  5
107
330
1F
100
AcDbEntity
  8
0
  6
Continuous
 62
     7
370
    25
100
AcDbSpline
210
0.0
220
0.0
230
1.0
 70
     8
 71
     3
 72
    13
 73
     9
 74
     0
 42
0.00000001
 43
0.00000001
 40
0.0
 40
0.0
 40
0.0
 40
0.0
 40
0.1129521103903381
 40
0.3043212496632505
 40
0.4955516194175948
 40
0.6867368959209069
 40
0.8781224200137637
 40
1.0
 40
1.0
 40
1.0
 40
1.0
 10
676.7824682188369
 20
-160.3882843017635
 30
0.0
 10
676.7933042456256
 20
-160.6614858898063
 30
0.0
 10
676.8224992133185
 20
-161.3975593318685
 30
0.0
 10
675.9890884453088
 20
-162.5137069940702
 30
0.0
 10
674.4652010083294
 20
-163.5420386996499
 30
0.0
 10
672.3940549344692
 20
-164.1771868844347
 30
0.0
 10
670.3229243537355
 20
-164.3609328801226
 30
0.0
 10
669.046995858325
 20
-164.2312648753041
 30
0.0
 10
668.5505854121818
 20
-164.1808164745089
 30
0.0
  0
LWPOLYLINE
  5
108
330
1F
100
AcDbEntity
  8
0
  6
Continuous
 62
     7
370
    25
100
AcDbPolyline
 90
       30
 70
   128
 43
0.0
 10
530.578528028
 20
-229.1295081367
 10
531.526855075
 20
-229.8105758638
 10
532.1993947129
 20
-230.5934077967
 10
532.5646997358
 20
-231.4413995842
 10
532.6056888866
 20
-232.3149000729
 10
532.3204455584
 20
-233.1730653508
 10
531.7223074121
 20
-233.9757685632
 10
530.8392427226
 20
-234.6854762001
 10
529.7125426135
 20
-235.2690031212
 10
528.3948903294
 20
-235.6990642561
 10
526.9478978268
 20
-235.9555504241
 10
525.439224867
 20
-236.0264686172
 10
523.9394153206
 20
-235.9085027794
 10
522.5185986152
 20
-235.6071688623
 10
521.2432105608
 20
-235.1365569047
 10
520.1728868854
 20
-234.5186721989
 10
519.3576747344
 20
-233.782406347
 10
518.8356925219
 20
-232.9621863219
 10
518.6313475561
 20
-232.0963647003
 10
518.7541947805
 20
-231.225426339
 10
519.1984899954
 20
-230.3900953478
 10
519.9434584502
 20
-229.6294308754
 10
520.9542662482
 20
-228.9790007472
 10
522.18364914
 20
-228.469218353
 10
523.574122548
 20
-228.123920551
 10
525.060669481
 20
-227.9592530826
 10
526.5737806567
 20
-227.9829156158
 10
528.0427046781
 20
-228.1938017166
 10
529.3987562906
 20
-228.5820505855
 10
530.578528028
 20
-229.1295081367
  0
LWPOLYLINE
  5
109
330
1F
100
AcDbEntity
  8
0
  6
Continuous
 62
     7
370
    25
100
AcDbPolyline
 90
       25
 70
   128
 43
0.0
 10
529.1643144656
 20
-229.9459162486
 10
529.9589075786
 20
-230.5437172479
 10
530.4584096911
 20
-231.2398712562
 10
530.6287805597
 20
-231.9869365281
 10
530.4584096911
 20
-232.7340018001
 10
529.9589075786
 20
-233.4301558083
 10
529.1643144656
 20
-234.0279568077
 10
528.1287805597
 20
-234.4866656479
 10
526.9228757852
 20
-234.7750220796
 10
525.6287805597
 20
-234.8733750885
 10
524.3346853342
 20
-234.7750220796
 10
523.1287805597
 20
-234.4866656479
 10
522.0932466538
 20
-234.0279568077
 10
521.2986535408
 20
-233.4301558083
 10
520.7991514283
 20
-232.7340018001
 10
520.6287805597
 20
-231.9869365281
 10
520.7991514283
 20
-231.2398712562
 10
521.2986535408
 20
-230.5437172479
 10
522.0932466538
 20
-229.9459162486
 10
523.1287805597
 20
-229.4872074083
 10
524.3346853342
 20
-229.1988509766
 10
525.6287805597
 20
-229.1004979677
 10
526.9228757852
 20
-229.1988509766
 10
528.1287805597
 20
-229.4872074083
 10
529.1643144656
 20
-229.9459162486
  0
LWPOLYLINE
  5
10A
330
1F
100
AcDbEntity
  8
0
  6
Continuous
 62
     7
370
    25
100
AcDbPolyline
 90
       30
 70
   128
 43
0.0
 10
664.9288164534
 20
-151.5707375136
 10
663.9804894064
 20
-150.8896697865
 10
663.3079497685
 20
-150.1068378537
 10
662.9426447457
 20
-149.2588460661
 10
662.9016555948
 20
-148.3853455774
 10
663.1868989231
 20
-147.5271802995
 10
663.7850370694
 20
-146.7244770871
 10
664.6681017588
 20
-146.0147694502
 10
665.794801868
 20
-145.4312425292
 10
667.112454152
 20
-145.0011813943
 10
668.5594466546
 20
-144.7446952262
 10
670.0681196145
 20
-144.6737770331
 10
671.5679291609
 20
-144.7917428709
 10
672.9887458662
 20
-145.0930767881
 10
674.2641339206
 20
-145.5636887456
 10
675.334457596
 20
-146.1815734514
 10
676.1496697471
 20
-146.9178393033
 10
676.6716519595
 20
-147.7380593284
 10
676.8759969253
 20
-148.60388095
 10
676.753149701
 20
-149.4748193113
 10
676.3088544861
 20
-150.3101503025
 10
675.5638860312
 20
-151.0708147749
 10
674.5530782333
 20
-151.7212449032
 10
673.3236953415
 20
-152.2310272974
 10
671.9332219335
 20
-152.5763250993
 10
670.4466750004
 20
-152.7409925677
 10
668.9335638248
 20
-152.7173300346
 10
667.4646398034
 20
-152.5064439337
 10
666.1085881908
 20
-152.1181950649
 10
664.9288164534
 20
-151.5707375136
  0
LWPOLYLINE
  5
10B
330
1F
100
AcDbEntity
  8
0
  6
Continuous
 62
     7
370
    25
100
AcDbPolyline
 90
       25
 70
   128
 43
0.0
 10
666.3430300158
 20
-150.7543294018
 10
665.5484369028
 20
-150.1565284024
 10
665.0489347903
 20
-149.4603743942
 10
664.8785639218
 20
-148.7133091222
 10
665.0489347903
 20
-147.9662438502
 10
665.5484369028
 20
-147.270089842
 10
666.3430300158
 20
-146.6722888426
 10
667.3785639218
 20
-146.2135800024
 10
668.5844686962
 20
-145.9252235707
 10
669.8785639218
 20
-145.8268705618
 10
671.1726591473
 20
-145.9252235707
 10
672.3785639218
 20
-146.2135800024
 10
673.4140978277
 20
-146.6722888426
 10
674.2086909407
 20
-147.270089842
 10
674.7081930532
 20
-147.9662438502
 10
674.8785639218
 20
-148.7133091222
 10
674.7081930532
 20
-149.4603743942
 10
674.2086909407
 20
-150.1565284024
 10
673.4140978277
 20
-150.7543294018
 10
672.3785639218
 20
-151.213038242
 10
671.1726591473
 20
-151.5013946737
 10
669.8785639218
 20
-151.5997476826
 10
668.5844686962
 20
-151.5013946737
 10
667.3785639218
 20
-151.213038242
 10
666.3430300158
 20
-150.7543294018
  0
LWPOLYLINE
  5
10C
330
1F
100
AcDbEntity
  8
0
  6
Continuous
 62
     1
370
    25
100
AcDbPolyline
 90
       68
 70
   128
 43
0.0
 10
516.9204226791
 20
-199.2244876783
 10
518.6486624813
 20
-198.2735642895
 10
522.2347064143
 20
-196.5792965445
 10
525.9718022907
 20
-195.1735312685
 10
529.8514843865
 20
-194.0594529721
 10
533.8649639738
 20
-193.2395854009
 10
538.0031492305
 20
-192.7157858186
 10
542.2566658359
 20
-192.4892407998
 10
546.615878207
 20
-192.5604635418
 10
551.0709113257
 20
-192.9292927022
 10
555.6116731089
 20
-193.5948927642
 10
560.2278772709
 20
-194.5557559298
 10
564.9090666244
 20
-195.8097055347
 10
569.64463677
 20
-197.3539009799
 10
574.4238601182
 20
-199.1848441659
 10
579.2359101908
 20
-201.2983874175
 10
584.0698861468
 20
-203.6897428796
 10
588.9148374759
 20
-206.3534933627
 10
593.759788805
 20
-209.2836046154
 10
598.593764761
 20
-212.4734389932
 10
603.4058148336
 20
-215.9157704954
 10
608.1850381818
 20
-219.6028011337
 10
612.9206083274
 20
-223.5261785981
 10
617.6017976809
 20
-227.6770151767
 10
622.2180018429
 20
-232.0459078895
 10
626.7587636261
 20
-236.6229597893
 10
631.2137967447
 20
-241.3978023816
 10
635.5730091158
 20
-246.359619112
 10
639.8265257213
 20
-251.4971698698
 10
643.964710978
 20
-256.7988164501
 10
647.9781905653
 20
-262.2525489183
 10
651.857872661
 20
-267.846012816
 10
655.5949685375
 20
-273.5665371487
 10
659.1810124705
 20
-279.4011630887
 10
662.6078809171
 20
-285.3366733317
 10
665.8678109182
 20
-291.359622038
 10
668.9534176837
 20
-297.4563652915
 10
671.8577113219
 20
-303.6130920078
 10
674.5741126736
 20
-309.8158552207
 10
677.0964682161
 20
-316.0506036765
 10
679.4190640027
 20
-322.3032136647
 10
681.536638607
 20
-328.5595210125
 10
683.4443950414
 20
-334.8053531716
 10
685.1380116241
 20
-341.0265613234
 10
686.6136517686
 20
-347.2090524303
 10
687.8679726755
 20
-353.3388211615
 10
688.8981329045
 20
-359.4019816193
 10
689.7017988113
 20
-365.3847987951
 10
690.2771498341
 20
-371.2737196838
 10
690.622882618
 20
-377.0554039854
 10
690.7382139668
 20
-382.7167543255
 10
690.622882618
 20
-388.2449459246
 10
690.2771498341
 20
-393.6274556508
 10
689.7017988113
 20
-398.8520903882
 10
688.8981329045
 20
-403.9070146587
 10
687.8679726755
 20
-408.7807774332
 10
686.6136517686
 20
-413.4623380713
 10
685.1380116241
 20
-417.9410913324
 10
683.4443950414
 20
-422.2068913998
 10
681.536638607
 20
-426.2500748645
 10
679.4190640027
 20
-430.0614826154
 10
677.0964682161
 20
-433.632480588
 10
674.5741126736
 20
-436.9549793235
 10
671.8577113219
 20
-440.0214522935
 10
668.9534176837
 20
-442.8249529506
 10
665.8678109182
 20
-445.3591304639
 10
662.6078809171
 20
-447.6182441064
 10
660.9091692608
 20
-448.6463007926
  0
LWPOLYLINE
  5
10D
330
1F
100
AcDbEntity
  8
0
  6
Continuous
 62
     1
370
    25
100
AcDbPolyline
 90
       68
 70
   128
 43
0.0
 10
534.5983582558
 20
-189.0192326937
 10
536.326332011
 20
-188.0684628917
 10
539.912375944
 20
-186.3741951467
 10
543.6494718204
 20
-184.9684298707
 10
547.5291539162
 20
-183.8543515743
 10
551.5426335035
 20
-183.0344840031
 10
555.6808187601
 20
-182.5106844208
 10
559.9343353656
 20
-182.284139402
 10
564.2935477367
 20
-182.355362144
 10
568.7485808553
 20
-182.7241913044
 10
573.2893426386
 20
-183.3897913665
 10
577.9055468006
 20
-184.350654532
 10
582.5867361541
 20
-185.604604137
 10
587.3223062997
 20
-187.1487995821
 10
592.1015296478
 20
-188.9797427681
 10
596.9135797205
 20
-191.0932860197
 10
601.7475556765
 20
-193.4846414818
 10
606.5925070056
 20
-196.1483919649
 10
611.4374583346
 20
-199.0785032176
 10
616.2714342907
 20
-202.2683375955
 10
621.0834843633
 20
-205.7106690976
 10
625.8627077114
 20
-209.397699736
 10
630.598277857
 20
-213.3210772003
 10
635.2794672106
 20
-217.4719137789
 10
639.8956713725
 20
-221.8408064917
 10
644.4364331558
 20
-226.4178583916
 10
648.8914662744
 20
-231.1927009838
 10
653.2506786455
 20
-236.1545177142
 10
657.504195251
 20
-241.2920684721
 10
661.6423805077
 20
-246.5937150524
 10
665.655860095
 20
-252.0474475205
 10
669.5355421907
 20
-257.6409114183
 10
673.2726380672
 20
-263.3614357509
 10
676.8586820001
 20
-269.1960616909
 10
680.2855504468
 20
-275.131571934
 10
683.5454804478
 20
-281.1545206402
 10
686.6310872134
 20
-287.2512638937
 10
689.5353808516
 20
-293.40799061
 10
692.2517822033
 20
-299.6107538229
 10
694.7741377458
 20
-305.8455022787
 10
697.0967335324
 20
-312.0981122669
 10
699.2143081367
 20
-318.3544196147
 10
701.1220645711
 20
-324.6002517739
 10
702.8156811537
 20
-330.8214599256
 10
704.2913212982
 20
-337.0039510325
 10
705.5456422051
 20
-343.1337197637
 10
706.5758024341
 20
-349.1968802215
 10
707.3794683409
 20
-355.1796973973
 10
707.9548193638
 20
-361.068618286
 10
708.3005521476
 20
-366.8503025876
 10
708.4158834964
 20
-372.5116529277
 10
708.3005521476
 20
-378.0398445268
 10
707.9548193638
 20
-383.422354253
 10
707.3794683409
 20
-388.6469889904
 10
706.5758024341
 20
-393.701913261
 10
705.5456422051
 20
-398.5756760354
 10
704.2913212982
 20
-403.2572366735
 10
702.8156811537
 20
-407.7359899346
 10
701.1220645711
 20
-412.0017900021
 10
699.2143081367
 20
-416.0449734667
 10
697.0967335324
 20
-419.8563812176
 10
694.7741377458
 20
-423.4273791902
 10
692.2517822033
 20
-426.7498779257
 10
689.5353808516
 20
-429.8163508958
 10
686.6310872134
 20
-432.6198515528
 10
683.5454804478
 20
-435.1540290661
 10
680.2855504468
 20
-437.4131427086
 10
678.5866557554
 20
-438.4413050593
  0
ENDSEC
  0
SECTION
  2
OBJECTS
  0
DICTIONARY
  5
C
330
0
100
AcDbDictionary
281
     1
  3
ACAD_GROUP
350
D
  3
ACAD_LAYOUT
350
1A
  3
ACAD_MLINESTYLE
350
17
  3
ACAD_PLOTSETTINGS
350
19
  3
ACAD_PLOTSTYLENAME
350
E
  3
ACAD_SCALELIST
350
47
  3
DWGPROPS
350
10E
  0
DICTIONARY
  5
D
102
{ACAD_REACTORS
330
C
102
}
330
C
100
AcDbDictionary
281
     1
  0
DICTIONARY
  5
1A
102
{ACAD_REACTORS
330
C
102
}
330
C
100
AcDbDictionary
281
     1
  3
Layout1
350
1E
  3
Layout2
350
26
  3
Model
350
22
  0
DICTIONARY
  5
17
102
{ACAD_REACTORS
330
C
102
}
330
C
100
AcDbDictionary
281
     1
  3
Standard
350
18
  0
DICTIONARY
  5
19
102
{ACAD_REACTORS
330
C
102
}
330
C
100
AcDbDictionary
281
     1
  0
ACDBDICTIONARYWDFLT
  5
E
102
{ACAD_REACTORS
330
C
102
}
330
C
100
AcDbDictionary
281
     1
  3
Normal
350
F
100
AcDbDictionaryWithDefault
340
F
  0
DICTIONARY
  5
47
102
{ACAD_REACTORS
330
C
102
}
330
C
100
AcDbDictionary
281
     1
  3
A0
350
48
  3
A1
350
49
  3
A2
350
4A
  3
A3
350
4B
  3
A4
350
4C
  3
A5
350
4D
  3
A6
350
4E
  3
A7
350
4F
  3
A8
350
50
  3
A9
350
51
  3
B0
350
52
  3
B1
350
53
  3
B2
350
54
  3
B3
350
55
  3
B4
350
56
  3
B5
350
57
  3
B6
350
58
  3
B7
350
59
  3
B8
350
5A
  3
B9
350
5B
  3
C0
350
5C
  3
C1
350
5D
  3
C2
350
5E
  3
C3
350
5F
  3
C4
350
60
  3
C5
350
61
  3
C6
350
62
  3
C7
350
63
  3
C8
350
64
  3
C9
350
65
  3
D0
350
66
  3
D1
350
67
  3
D2
350
68
  0
XRECORD
  5
10E
102
{ACAD_REACTORS
330
C
102
}
330
C
100
AcDbXrecord
280
     1
  1
DWGPROPS COOKIE
  2

  3

  4

  6

  7

  8
b.kav
  9

300
=
301
=
302
=
303
=
304
=
305
=
306
=
307
=
308
=
309
=
 40
0.0
 41
2460390.23010162
 42
2460390.230101806
  1

 90
        0
  0
LAYOUT
  5
1E
102
{ACAD_REACTORS
330
1A
102
}
330
1A
100
AcDbPlotSettings
  1

  2
none_device
  4

  6

 40
0.0
 41
0.0
 42
0.0
 43
0.0
 44
0.0
 45
0.0
 46
0.0
 47
0.0
 48
0.0
 49
0.0
140
0.0
141
0.0
142
1.0
143
1.0
 70
   688
 72
     1
 73
     0
 74
     5
  7

 75
    16
147
1.0
148
0.0
149
0.0
100
AcDbLayout
  1
Layout1
 70
     1
 71
     1
 10
0.0
 20
0.0
 11
420.0
 21
297.0
 12
0.0
 22
0.0
 32
0.0
 14
1.0000000000E+20
 24
1.0000000000E+20
 34
1.0000000000E+20
 15
-1.0000000000E+20
 25
-1.0000000000E+20
 35
-1.0000000000E+20
146
0.0
 13
0.0
 23
0.0
 33
0.0
 16
1.0
 26
0.0
 36
0.0
 17
0.0
 27
1.0
 37
0.0
 76
     0
330
1B
  0
LAYOUT
  5
26
102
{ACAD_REACTORS
330
1A
102
}
330
1A
100
AcDbPlotSettings
  1

  2
none_device
  4

  6

 40
0.0
 41
0.0
 42
0.0
 43
0.0
 44
0.0
 45
0.0
 46
0.0
 47
0.0
 48
0.0
 49
0.0
140
0.0
141
0.0
142
1.0
143
1.0
 70
   688
 72
     1
 73
     0
 74
     5
  7

 75
    16
147
1.0
148
0.0
149
0.0
100
AcDbLayout
  1
Layout2
 70
     1
 71
     2
 10
0.0
 20
0.0
 11
0.0
 21
0.0
 12
0.0
 22
0.0
 32
0.0
 14
0.0
 24
0.0
 34
0.0
 15
0.0
 25
0.0
 35
0.0
146
0.0
 13
0.0
 23
0.0
 33
0.0
 16
1.0
 26
0.0
 36
0.0
 17
0.0
 27
1.0
 37
0.0
 76
     0
330
23
  0
LAYOUT
  5
22
102
{ACAD_REACTORS
330
1A
102
}
330
1A
100
AcDbPlotSettings
  1

  2
none_device
  4
Letter_(8.50_x_11.00_Inches)
  6

 40
6.35
 41
6.35
 42
6.35000508
 43
6.35000508
 44
215.9
 45
279.4
 46
0.0
 47
0.0
 48
0.0
 49
0.0
140
0.0
141
0.0
142
1.0
143
1.0
 70
  1712
 72
     1
 73
     0
 74
     0
  7

 75
     0
147
1.0
148
0.0
149
0.0
100
AcDbLayout
  1
Model
 70
     1
 71
     0
 10
0.0
 20
0.0
 11
279.4
 21
215.9
 12
0.0
 22
0.0
 32
0.0
 14
0.0
 24
0.0
 34
0.0
 15
279.4
 25
215.9
 35
0.0
146
0.0
 13
0.0
 23
0.0
 33
0.0
 16
1.0
 26
0.0
 36
0.0
 17
0.0
 27
1.0
 37
0.0
 76
     0
330
1F
331
29
  0
MLINESTYLE
  5
18
102
{ACAD_REACTORS
330
17
102
}
330
17
100
AcDbMlineStyle
  2
Standard
 70
     0
  3

 62
   256
 51
90.0
 52
90.0
 71
     2
 49
0.5
 62
   256
  6
BYLAYER
 49
-0.5
 62
   256
  6
BYLAYER
  0
ACDBPLACEHOLDER
  5
F
102
{ACAD_REACTORS
330
E
102
}
330
E
  0
SCALE
  5
48
102
{ACAD_REACTORS
330
47
102
}
330
47
100
AcDbScale
 70
     0
300
1:1
140
1.0
141
1.0
290
     1
  0
SCALE
  5
49
102
{ACAD_REACTORS
330
47
102
}
330
47
100
AcDbScale
 70
     0
300
1:2
140
1.0
141
2.0
290
     0
  0
SCALE
  5
4A
102
{ACAD_REACTORS
330
47
102
}
330
47
100
AcDbScale
 70
     0
300
1:4
140
1.0
141
4.0
290
     0
  0
SCALE
  5
4B
102
{ACAD_REACTORS
330
47
102
}
330
47
100
AcDbScale
 70
     0
300
1:5
140
1.0
141
5.0
290
     0
  0
SCALE
  5
4C
102
{ACAD_REACTORS
330
47
102
}
330
47
100
AcDbScale
 70
     0
300
1:8
140
1.0
141
8.0
290
     0
  0
SCALE
  5
4D
102
{ACAD_REACTORS
330
47
102
}
330
47
100
AcDbScale
 70
     0
300
1:10
140
1.0
141
10.0
290
     0
  0
SCALE
  5
4E
102
{ACAD_REACTORS
330
47
102
}
330
47
100
AcDbScale
 70
     0
300
1:16
140
1.0
141
16.0
290
     0
  0
SCALE
  5
4F
102
{ACAD_REACTORS
330
47
102
}
330
47
100
AcDbScale
 70
     0
300
1:20
140
1.0
141
20.0
290
     0
  0
SCALE
  5
50
102
{ACAD_REACTORS
330
47
102
}
330
47
100
AcDbScale
 70
     0
300
1:30
140
1.0
141
30.0
290
     0
  0
SCALE
  5
51
102
{ACAD_REACTORS
330
47
102
}
330
47
100
AcDbScale
 70
     0
300
1:40
140
1.0
141
40.0
290
     0
  0
SCALE
  5
52
102
{ACAD_REACTORS
330
47
102
}
330
47
100
AcDbScale
 70
     0
300
1:50
140
1.0
141
50.0
290
     0
  0
SCALE
  5
53
102
{ACAD_REACTORS
330
47
102
}
330
47
100
AcDbScale
 70
     0
300
1:100
140
1.0
141
100.0
290
     0
  0
SCALE
  5
54
102
{ACAD_REACTORS
330
47
102
}
330
47
100
AcDbScale
 70
     0
300
2:1
140
2.0
141
1.0
290
     0
  0
SCALE
  5
55
102
{ACAD_REACTORS
330
47
102
}
330
47
100
AcDbScale
 70
     0
300
4:1
140
4.0
141
1.0
290
     0
  0
SCALE
  5
56
102
{ACAD_REACTORS
330
47
102
}
330
47
100
AcDbScale
 70
     0
300
8:1
140
8.0
141
1.0
290
     0
  0
SCALE
  5
57
102
{ACAD_REACTORS
330
47
102
}
330
47
100
AcDbScale
 70
     0
300
10:1
140
10.0
141
1.0
290
     0
  0
SCALE
  5
58
102
{ACAD_REACTORS
330
47
102
}
330
47
100
AcDbScale
 70
     0
300
100:1
140
100.0
141
1.0
290
     0
  0
SCALE
  5
59
102
{ACAD_REACTORS
330
47
102
}
330
47
100
AcDbScale
 70
     0
300
1/128" = 1'-0"
140
0.0078125
141
12.0
290
     0
  0
SCALE
  5
5A
102
{ACAD_REACTORS
330
47
102
}
330
47
100
AcDbScale
 70
     0
300
1/64" = 1'-0"
140
0.015625
141
12.0
290
     0
  0
SCALE
  5
5B
102
{ACAD_REACTORS
330
47
102
}
330
47
100
AcDbScale
 70
     0
300
1/32" = 1'-0"
140
0.03125
141
12.0
290
     0
  0
SCALE
  5
5C
102
{ACAD_REACTORS
330
47
102
}
330
47
100
AcDbScale
 70
     0
300
1/16" = 1'-0"
140
0.0625
141
12.0
290
     0
  0
SCALE
  5
5D
102
{ACAD_REACTORS
330
47
102
}
330
47
100
AcDbScale
 70
     0
300
3/32" = 1'-0"
140
0.09375
141
12.0
290
     0
  0
SCALE
  5
5E
102
{ACAD_REACTORS
330
47
102
}
330
47
100
AcDbScale
 70
     0
300
1/8" = 1'-0"
140
0.125
141
12.0
290
     0
  0
SCALE
  5
5F
102
{ACAD_REACTORS
330
47
102
}
330
47
100
AcDbScale
 70
     0
300
3/16" = 1'-0"
140
0.1875
141
12.0
290
     0
  0
SCALE
  5
60
102
{ACAD_REACTORS
330
47
102
}
330
47
100
AcDbScale
 70
     0
300
1/4" = 1'-0"
140
0.25
141
12.0
290
     0
  0
SCALE
  5
61
102
{ACAD_REACTORS
330
47
102
}
330
47
100
AcDbScale
 70
     0
300
3/8" = 1'-0"
140
0.375
141
12.0
290
     0
  0
SCALE
  5
62
102
{ACAD_REACTORS
330
47
102
}
330
47
100
AcDbScale
 70
     0
300
1/2" = 1'-0"
140
0.5
141
12.0
290
     0
  0
SCALE
  5
63
102
{ACAD_REACTORS
330
47
102
}
330
47
100
AcDbScale
 70
     0
300
3/4" = 1'-0"
140
0.75
141
12.0
290
     0
  0
SCALE
  5
64
102
{ACAD_REACTORS
330
47
102
}
330
47
100
AcDbScale
 70
     0
300
1" = 1'-0"
140
1.0
141
12.0
290
     0
  0
SCALE
  5
65
102
{ACAD_REACTORS
330
47
102
}
330
47
100
AcDbScale
 70
     0
300
1-1/2" = 1'-0"
140
1.5
141
12.0
290
     0
  0
SCALE
  5
66
102
{ACAD_REACTORS
330
47
102
}
330
47
100
AcDbScale
 70
     0
300
3" = 1'-0"
140
3.0
141
12.0
290
     0
  0
SCALE
  5
67
102
{ACAD_REACTORS
330
47
102
}
330
47
100
AcDbScale
 70
     0
300
6" = 1'-0"
140
6.0
141
12.0
290
     0
  0
SCALE
  5
68
102
{ACAD_REACTORS
330
47
102
}
330
47
100
AcDbScale
 70
     0
300
1'-0" = 1'-0"
140
12.0
141
12.0
290
     0
  0
ENDSEC
  0
EOF
